Cifra Club

Cidade em Chamas

CPM 22

Cifra: Principal (violão e guitarra)
tom: D
Intro gui 1 (D5)
Assim fica bem parecido, talvez eu tenha errado no
numerode vezes q tem q tocar cada nota, então ai vai a cifra
q é a msma coisa:
     D5            G5       F#5
D|-------------------------------------|
A|-------------------------------------|
F|---9-9-9-9-9-9-9-14-14-14-13-13-13---|
C|---9-9-9-9-9-9-9-14-14-14-13-13-13---|
G|---7-7-7-7-7-7-7-12-12-12-11-11-11---|
D|-------------------------------------|

obs:o original é afinado 1 tom abaixo, afinação:
D G C F A D

    G5        B5        C5
D|--------------------------------|
A|--------------------------------|
F|------------6-6-6-6-6-7-7-7-7-7-|
C|--7-7-7-7-7-6-6-6-6-6-7-7-7-7-7-|
G|--7-7-7-7-7-4-4-4-4-4-5-5-5-5-5-|
D|--5-5-5-5-5---------------------|

Que horas são? A cidade está em chamas!
D|--------------------------------|
A|--------------------------------|
F|--------------------------------|
C|--------------------------------|
G|-------5-5-5-----5-5-5-----5-5-5|
D|--2-2-2-----2-2-2-----2-2-2-----|

Meu coração sangra.
Já faz 2 ou 3 dias,
D|---------------------------------|
A|---------------------------------|
F|---------------------------------|
C|---------------------------------|
G|--5-5-5-----5-5-5-----5-5-5------|
D|-------2-2-2-----2-2-2-----2-2-2-|
Que me perdi dentro de mim...

Segui seus passos

Senti teus traços

Pra onde eles levam?

A cidade não tem fim

Olhos me cercam.

   D          

F|--7-7-7-7-7-|
C|--7-7-7-7-7-|
G|--5-5-5-5-5-|
D|------------|

Estou de joelhos vendo o céu desabar...
   G  G/F# F  F/E
F|------------------|   
C|------------------|   
G|-7-7-7-7-5-5-5-5--|3x 
D|-5-5-4-4-3-3-2-2--|   
                         
Leio pare escrito no asfalto

Tantas promessas como se fosse fácil

Cumprir, Fugir dos desfarces.
F|--7-7-7-7-7-|
C|--7-7-7-7-7-|
G|--5-5-5-5-5-|
D|------------|
REPETE TUDO DENOVO
 
   G  G/F# F  F/E
F|------------------|   
C|------------------|   
G|-7-7-7-7-5-5-5-5--|3x 
D|-5-5-4-4-3-3-2-2--|   
                         
Leio pare escrito no asfalto

Tantas promessas como se fosse fácil

Cumprir, Fugir dos desfarces.
F|--7-7-7-7-7-|
C|--7-7-7-7-7-|
G|--5-5-5-5-5-|
D|------------|

Esse riff abaixo é tocado 3x.

D|-------------------------------------------------------------|
A|---------------------4-4------------------------5/-----------|
D|---5-5-5-5-5-5-5-5-5-----2-2-2-0-0-0-2-2-2-5-5-5-------------|

Esse riff é tocado 4x.

D|----------------------------------------------|
A|----------------------------------------------|
F|----------------------------------------------|
C|------------------6-6--------------------7----|
G|7-7-7-7-7-7-7-7-7-4-4-4-4-4-2-2-2-4-4-4--5----|
D|5-5-5-5-5-5-5-5-5-----2-2-2-0-0-0-2-2-2-5-----|
00:00 / 00:00
Outros vídeos desta música
Repetir
Outros vídeos desta música
Composição de Carlos Dias
Colaboração e revisão:
  • Leandro Borba
  • Leandro Andrade
56.903 exibições
    • ½ Tom
    • A
    • Bb
    • B
    • C
    • Db
    • D
    • Eb
    • E
    • F
    • F#
    • G
    • Ab
  • Adicionar à lista

    0 comentários

    Ver todos os comentários

    Conseguiu tocar?

    0 Tocaram 0 Ainda não

    Grave um vídeo tocando Cidade em Chamas e nos envie!

    Entre para oCifra Club PRO

    Tenha acesso a benefícios exclusivos no App e no Site

    • Chega de anúncios

    • Prioridade de compra em lançamentos

    • Mais recursos no app do Afinador

    • Atendimento Prioritário

    • Descontos nos produtos Cifra Club

    • Ajude a produzir mais conteúdo

    00:00 / 00:00

    Cifra Club Pro

    Aproveite o Cifra Club com benefícios exclusivos e sem anúncios
    Cifra Club Pro
    Aproveite o Cifra Club com benefícios exclusivos e sem anúncios
    OK