Cifra Club

Aprenda

Contagem Regressiva

CPM 22

Cifra: Principal (violão e guitarra)
tom: F
C                                Dm       F
   Não pensei que um um dia eu teria que...me esconder pra viver 
C                             Dm       F                       C
   Não pensei que um dia chegaria ver...o que vejo na TV 
G         Am             F              C
   Quanto tempo mais nós temos eu não sei
G         F               
   o que for pra ser vai ser! 
C                            Dm         F
   Acordei vi que não devia mais temer...Tenho que sobreviver. 
C                                Dm         F                 C
   Já cansei de ficar esperando por ninguém...Com medo de morrer
G           Am            F             C
   Quanto tempo mais nós temos eu não sei.
G#        F               
   o que for pra ser vai ser!   Ouuiieeehh (IEERERE)

TOKADAS JUNTAS , GUITAR 1 E GUITAR 2

 Guitar 1 (2x)
  (Base) F 
E|-------------|---------------|
B|-------------|---------------|
G|-------------|-7-7-5-7-5-7-5-|<- Repete isso tudo 3x  
D|-3-3-3-3-3-3-|---------------|
A|-3-3-3-3-3-3-|-5-5-3-5-3-5-3-|
E|-1-1-1-1-1-1-|---------------|

   F
E|-------------|---------------|
B|-------------|---------------|
G|-------------|-7-7-5-7-5-7-5-|<- E a 4ª termina assim
D|-3-3-3-3-3-3-|---------------|
A|-3-3-3-3-3-3-|-5-5-3-5-3-5-3-|
E|-1-1-1-1-1-1-|---------------|

 Guitar 2 (solo)

   F      (2x)
e|-------------------|---------------|
B|-------------------|---------------|
G|-10-10-10-10-10-10-|-7-7-5-7-5-5-5-|<- Repete isso tudo 3x 
D|-------------------|---------------|
A|-8--8--8--8--8--8--|---------------|
E|-------------------|---------------|

   F
e|-------------------|---------------|
B|-------------------|---------------|
G|-10-10-10-10-10-10-|-7-7-5-7-5-7-5-|<- E a 4ª termina assim 
D|-------------------|---------------|
A|-8--8--8--8--8--8--|---------------|
E|-------------------|---------------|

Que for pra ser vai ser..

Solo de wha wha

TOKADAS JUNTAS , GUITAR 1 E GUITAR 2

-Guitarra 1(base)
(C5,G,F)4x

 Guitarra 2(solo)
e|---------------------------------------------------------------|
B|-11-11-11-11-11--10--10--10--10---11-11-11-11-11--12-12-12-12-12--| <-Repete isto 3x 
G|---------------------------------------------------------------|
D|-14-14-14-14-14-13-13-13-13-13--14-14-14-14--15-15-15-15-15--|
A|---------------------------------------------------------------|
E|---------------------------------------------------------------|

E|---------------------------------------------------------------| <- Na 4ª faz assim 
B|-13-13-13-13-13-12-12-12-12-12--12-12-12-12-12-12-12-----------|
G|---------------------------------------------------------------|
D|-10-10-10-10-10--9--9--9--9--9--10-10-10-10-10-10-10-----------|
A|---------------------------------------------------------------|
E|---------------------------------------------------------------|

  C  
Aaaahhhh
G         Am              F             C
   Quanto tempo mais nós temos eu não sei
G#        Am              F             C#
   Quanto tempo que eu talvez disperdicei
G#        Am              F             C#
   Quanto tempo mais nós temos eu não sei

Final
(C,G,F,G,C) 
Composição de Luciano
Colaboração e revisão:
41.025 exibições
    • ½ Tom
    • A
    • Bb
    • B
    • C
    • Db
    • D
    • Eb
    • E
    • F
    • F#
    • G
    • Ab
  • Adicionar à lista

    0 comentários

    Ver todos os comentários

    Conseguiu tocar?

    2 Tocaram 0 Ainda não

    Grave um vídeo tocando Contagem Regressiva e nos envie!

    00:00 / 00:00
    Outros vídeos desta música
    Repetir Qualidade Automático
    Outros vídeos desta música
    00:00 / 00:00
    Automático

    Cifra Club Pro

    Aproveite o Cifra Club com benefícios exclusivos e sem anúncios
    Cifra Club Pro
    Aproveite o Cifra Club com benefícios exclusivos e sem anúncios
    OK