Cifra Club

Felicidade instantânea

CPM 22

Cifra: Principal (violão e guitarra)
tom: G
[Intro]

E|--------------------------0---0-----0----0-------0---------|
B|--------------------------0---0-----0----0-------0---------|
G|----7---------5-----------0---0-----0----0-------0---------|
D|----7---------5---------4-----------7----5-----4----5-5-x--|
A|----5---------3-------2-------5-----5----3---2------5-5-x--|
E|------------------------------3---------------------3-3-x--|

   D              C               
   As palavras que ainda n foram ditas
   Bm                  G
   Podem esclarecer suas duvidas
   D          C                  Bm
   Você passou muito rápido por mim
              G
   E já eram 4:20

   Bm        C    D       Bm    C        D 
   Não perco a esperança de ter mais uma chance
   Bm                  C      D
   Quero estar bem perto de vc
   Bm               C         D
   Quero e faço tudo pra te ter
   C                    Bm 
   Mas só penso em esperar, talvez
   C                    D      E      
   A felicidade instantânea volte com vc
   C                    Bm 
   Mas só penso em esperar, talvez
   C                    D      E      
   A felicidade instantânea volte com vc

   (C  Bm) 2x
E|---------------------------------------------|
B|---------------------------------------------|
G|---9--9--9--9--9--9--9--9--9--9--9--9--9-----|
D|---------------------------------------------|
A|---7--7--7--7--7--7--7--7--7--7--7--7--7-----|
E|---------------------------------------------|

  D  C              Bm                        C
  Ola, sou eu que faço as canções pra você chorar
   D     C        Bm                     C
   De amor no verão as pessoas enlouquecem
  
   Não posso ficar assim sem vc

   Bm       C    D       Bm    C        D 
   Não perco a esperança de ter mais uma chance
   Bm                  C      D
   Quero estar bem perto de vc
   Bm               C         D
   Quero e faço tudo pra te ter
   C                    Bm 
   Mas só penso em esperar, talvez
   C                    D      E      
   A felicidade instantânea volte com vc

   C                    Bm 
   Mas só penso em esperar, talvez
   C                    D      E      
   A felicidade instantânea volte com vc

  (C  Bm) 2x
E|---------------------------------------------|
B|---------------------------------------------|
G|---9--9--9--9--9--9--9--9--9--9--9--9--9-----|
D|---------------------------------------------|
A|---7--7--7--7--7--7--7--7--7--7--7--7--7-----|
E|---------------------------------------------|

   Volte com você
                D  E  C
   Volte com você
00:00 / 00:00
Outros vídeos desta música
Repetir
Outros vídeos desta música
Composição de Wally
Colaboração e revisão:
  • João Caminotto
  • João Reinaldo
82.924 exibições
    • ½ Tom
    • A
    • Bb
    • B
    • C
    • Db
    • D
    • Eb
    • E
    • F
    • F#
    • G
    • Ab
  • Adicionar à lista

    0 comentários

    Ver todos os comentários

    Conseguiu tocar?

    4 Tocaram 0 Ainda não

    Grave um vídeo tocando Felicidade instantânea e nos envie!

    Entre para oCifra Club PRO

    Tenha acesso a benefícios exclusivos no App e no Site

    • Chega de anúncios

    • Prioridade de compra em lançamentos

    • Mais recursos no app do Afinador

    • Atendimento Prioritário

    • Descontos nos produtos Cifra Club

    • Ajude a produzir mais conteúdo

    00:00 / 00:00

    Cifra Club Pro

    Aproveite o Cifra Club com benefícios exclusivos e sem anúncios
    Cifra Club Pro
    Aproveite o Cifra Club com benefícios exclusivos e sem anúncios
    OK