Cifra Club

Aprenda

Jovem, alcoólatra, suicida

CPM 22

Cifra: Principal (violão e guitarra)
Tom: D
  e|-----------------------------|
  B|--------2-----3--2-----------|
  G|--2--2-----2--------2--------|
  D|-----------------------------| (2x)
  A|-----------------------------|
  D|-----------------------------|

  e|-----------------------------------------------|
  B|--------2-----3--2---------2---------5--3------|
  G|--2--2-----2--------2--2------2------------2---|
  D|-----------------------------------------------| (3x)
  A|-----------------------------------------------|
  D|-----------------------------------------------|

  |-----------------------------|
  |-----------------------------|
  |---2h4--2--------2h4--2------|
  |-----------------------------| (1x)
  |-----------------------------|
  |-----------------------------|

 Bm      D
   Portas fechadas
 Bm        D                     Bm
   Que, só abrem prá quem quer ver
 D              E         G
   Pulsos cortados, imitam a TV

 Bm      D
   Olho pra rua
 Bm      D
  Da mesma janela
 Bm                D          E      G
  Que, costumávamos pensar onde ir

 A     Bm    G         A     Bm      G
  O tempo passou, e você não voltou
 A     Bm   G          A     Bm      G
  O tempo se foi, e você não voltou

  REFRÃO:
 D      Bm           A          E G E G
  Por que, você não quis, mais viver?
 D     Bm             A         E G E G
  Por que, você não quis, mais viver?

 Solo: Bm D Bm D Bm D E G

 Bm      D
  Desci na contramão
 Bm D       Bm D
  Te despistei
 Bm         D
  Estar perdido às vezes
 E             G
  É melhor que se encontrar
 Bm          D      Bm   D
  Jovem, alcoólatra bebe sem perceber
 Bm  D              E             G
  Passo-a-passo o caminho da destruição

 A   Bm     G         A      Bm      G
  O tempo passou, e você nao voltou
 A   Bm      G        A     Bm       G
  O tempo se foi, e você nao voltou

  e|----------------------------------|
  B|-6--3-----------------------------|
  G|-------5--3-----------------------|
  D|--------------5--3----------------|
  A|--------------------5--3--5-------|
  D|----------------------------------|

  REFRÃO:
  D      Bm           A           E G E G
  Por que, você não quis, mais viver?
  D     Bm            A           E G E G
  Por que, você não quis, mais viver?
  D     Bm    A       E G
  Por quê? aaahhhhh
Composição de Wally
Colaboração e revisão:
  • Rafa Jr
  • Bruno Simão
  • João Reinaldo
30.253 exibições
    • ½ Tom
    • A
    • Bb
    • B
    • C
    • Db
    • D
    • Eb
    • E
    • F
    • F#
    • G
    • Ab
  • Adicionar à lista

    0 comentários

    Mostrar mais comentários

    Conseguiu tocar?

    3 Tocaram 0 Ainda não

    Grave um vídeo tocando Jovem, alcoólatra, suicida e mande pra gente!

    00:00 / 00:00
    outros vídeos desta música
    repetir qualidade Automático
    Outros vídeos desta música
    00:00 / 00:00
    Automático

    Cifra Club Pro

    Aproveite o Cifra Club com benefícios exclusivos e sem anúncios
    Cifra Club Pro
    Aproveite o Cifra Club com benefícios exclusivos e sem anúncios
    OK