Cifra Club

Aprenda

Rain

Creed

Tab de baixo: Principal
[Intro]

G|-----------------|---------------|-----------------|----------------|
D|-----------------|---------------|-----------------|----------------|
A|-----------------|---------------|-----------------|----------------|
E|-7---------------|---------------|-----------------|----------------|
B|------9--7-------|-9------7------|-5-----5---------|-5-----5--------|

[Verso]

G|-----------------|---------------|-----------------|----------------|
D|-----------------|---------------|-----------------|----------------|
A|-----------------|---------------|-----------------|----------------|
E|-7---------------|---------------|-----------------|----------------|
B|------9--7-------|-9------7--7h9-|-5-----5---------|-5-----5--------|

G|-----------------|---------------|-----------------|----------------|
D|-----------------|---------------|-----------------|----------------|
A|-----------------|---------------|-----------------|----------------|
E|-7---------------|---------------|-----------------|----------------|
B|------9--7-------|-9------7--7h9-|-5-----5---------|-5-----5--------|

[Pré-Refrão]

G|-----------------|---------------|-----------------|-----------------|------------|
D|-----------------|---------------|-----------------|-----------------|------------|
A|-----------------|---------------|-----------------|-----------------|------------|
E|-----------------|---------------|-----------------|-----------------|------------|
B|-9-------9---9---|-7-----7-------|-9-----9---9-9-9-|-5-5-5---5-5-5---|-5-5-5-5-5--|


[Chorus]
G|---------------------|----------------------|--------------------|
D|---------------------|----------------------|--------------------|
A|---------------------|----------------------|--------------------|
E|---------------------|-6----6----6-6--------|--------------------|
B|-0----0----0-0-------|----------------------|-5----5----5-5----7-|

G|---------------------|----------------------|--------------------|
D|---------------------|----------------------|--------------------|
A|---------------------|----------------------|--------------------|
E|---------------------|-----------------7----|-6----6----6-6------|
B|-4----4----4-4-----4-|-0----0----0-/7-----7-|------------------7-|

G|---------------------|----------------------|
D|---------------------|----------------------|
A|---------------------|----------------------|
E|---------------------|----------------------|
B|-5----5----5-5-------|-4--------------------|

[Intro]

G|-----------------|---------------|-----------------|----------------|
D|-----------------|---------------|-----------------|----------------|
A|-----------------|---------------|-----------------|----------------|
E|-7---------------|---------------|-----------------|----------------|
B|------9--7-------|-9------7------|-5-----5---------|-5-----5--------|

[Verso 2]

G|-----------------|---------------|-----------------|-------------------|
D|-----------------|---------------|-----------------|-------------------|
A|-----------------|-----------9---|-7---------------|-7-----------------|
E|-7-----------7h9-|---------------|-----7-----------|-----7-------------|
B|------9--7-------|-9------7----7-|---------5-------|---------5-5-5h7-7-|

G|-----------------|-----------------|-----------------|----------------|
D|-----------------|-----------------|-----------------|----------------|
A|-----------------|-----------------|-----------------|-7--------------|
E|-7---------------|-----------------|-----------------|----7-----------|
B|-----9--7--7--7-7|-9--9-9-7--7-7h9-|-5--5--5---------|-------5--------|

[Pré-Refrão 2]

G|-----------------|---------------|--------------------|-----------------|
D|-----------------|---------------|--------------------|-----------------|
A|-----------------|---------------|--------------------|-7---------------|
E|-----------------|---------------|--------------------|---7-------------|
B|-9-------9--9-12\|-7--7--7----7-7|-9---9-9--9h11p9-9-9|-----5---5-5-5---|

G|-----------------|
D|-----------------|
A|-----------------|
E|-----------------|
B|-5-5-5-5-5-------|

[Refrão 2]

G|---------------------|----------------------|--------------------|
D|---------------------|----------------------|--------------------|
A|---------------------|----------------------|--------------------|
E|---------------------|-6----6----6-6--------|--------------------|
B|-0----0----0-0-------|--------------------7-|-5----5----5-5----7-|

G|---------------------|----------------------|--------------------|
D|---------------------|----------------------|--------------------|
A|---------------------|----------------------|--------------------|
E|---------------------|-------------------7--|-6----6----6-6------|
B|-4----4----4-4-----4\|-0----0----0----/7----|------------------7-|

G|---------------------|----------------------|-----------------|-----------------|
D|---------------------|----------------------|-----------------|-----------------|
A|---------------------|----------------------|-----------------|-----------------|
E|---------------------|----------------------|-----------------|-----------------|
B|-5----5----5-5-------|-4----4----4-4--------|-5-5-5-5-5-5-5-5-|-7-7-7-7-7-7-7-7-|

[Ponte]

G|---------------------|----------------------|----------------------|
D|---------------------|----------------------|----------------------|
A|---------------------|----------------------|----------------------|
E|---------------------|----------------------|----------------------|
B|-9----9----9-9-------|-5----5----5-5--------|-0----0----0-0--------|

G|---------------------|---------------------|--------------------|
D|---------------------|---------------------|--------------------|
A|---------------------|---------------------|--------------------|
E|---------------------|---------------------|--------------------|
B|-7----7----7-7-----7-|-9----9----9-9-------|-5----5----5-5----7-|

G|---------------------|------------------|------------------|
D|---------------------|------------------|------------------|
A|---------------------|------------------|------------------|
E|---------------------|------------------|------------------|
B|-0----0----0-0-----0-|-7-7-7----7-7-7---|-7-7-7-7-7--------|

[Refrão Final]

G|---------------------|----------------------|--------------------|
D|---------------------|----------------------|--------------------|
A|---------------------|----------------------|--------------------|
E|---------------------|-6----6----6-6--------|--------------------|
B|-0----0----0-0-------|----------------------|-5----5----5-5----7-|

G|---------------------|----------------------|--------------------|
D|---------------------|----------------------|--------------------|
A|---------------------|----------------------|--------------------|
E|---------------------|-------------------7--|-6----6----6-6------|
B|-4----4----4-4-----4\|-0----0----0----------|------------------7-|

G|---------------------|----------------------|
D|---------------------|----------------------|
A|---------------------|----------------------|
E|---------------------|----------------------|
B|-5----5----5-5-------|-4----4----4-4--------|

G|---------------------|----------------------|--------------------|
D|---------------------|----------------------|--------------------|
A|---------------------|----------------------|--------------------|
E|---------------------|-6----6----6-6--------|--------------------|
B|-0----0----0-0-------|----------------------|-5----5----5-5----7-|

G|---------------------|----------------------|---------------------|
D|---------------------|----------------------|---------------------|
A|---------------------|----------------------|---------------------|
E|---------------------|------------------7---|-6----6----6-7-6h7-9-|
B|-4----4----4-4-----4\|-0----0----0---/7---7-|---------------------|

G|---------------------|----------------------|
D|---------------------|----------------------|
A|---------------------|----------------------|
E|---------------------|----------------------|
B|-5----5----5-5---5-7-|-4--------------------|
Composição de Creed
Colaboração e revisão:
  • Gabriel Leite
8 exibições

0 comentários

Ver todos os comentários

Conseguiu tocar?

0 Tocaram 0 Ainda não

Grave um vídeo tocando Rain e nos envie!

00:00 / 00:00
Outros vídeos desta música
Repetir Qualidade Automático
Outros vídeos desta música
00:00 / 00:00
Automático

Cifra Club Pro

Aproveite o Cifra Club com benefícios exclusivos e sem anúncios
Cifra Club Pro
Aproveite o Cifra Club com benefícios exclusivos e sem anúncios
OK