Cifra Club

Aprenda

Duas de Cinco

Criolo

Tab de baixo: Principal
Já pensou em usar uma coleção de roupas do Cifra Club? Responda as perguntas abaixo e nos ajude nessa missão! →
É o cão... (00:24)
G|--------------------------------------------------| 3x
D|--------------------------------------------------|
A|--------------------------------------------------|
E|-1-1-1-1-4-1-1-1-4-3-1----------------------------|


É o sleazestack... (01:00)
G|--------------------------------------------------| 1x
D|-5-3----5-3---5-3---------------------------------|
A|--------------------------------------------------|
E|-----4------3-----4-4-3-4-6-11-10-8---------------|


Compro uma pistola... (01:24)
G|--------------------------------------------------| 1x
D|-6-5-3-1-0--6-5-3-1-0-----------------------------|
A|-----------------------4-------4-5-3--------------|
E|-------------------------1-3-1---------1~---------|


E eu fico aqui... (01:48)
G|--------------------------------------------------| 2x
D|--------------------------------------------------|
A|--------------------------------------------------|
E|-1-1-1-1-4-1-1-1-4-3-1----------------------------|


Alô, Focault... (02:12)
G|--------------------------------------------------| 1x
D|--------------------------------------------------|
A|--------------------------------------------------|
E|-1-1-1-1-4-1-1-1-1-1-1----------------------------|


É salto alto... (02:24)
G|--------------------------------------------------| 1x
D|-5-3----5-3---5-3---------------------------------|
A|--------------------------------------------------|
E|-----4------3-----4-4-3-4-6-11-10-8---------------|


Compro uma pistola... (02:48)
G|--------------------------------------------------| 2x
D|-6-5-3-1-0--6-5-3-1-0-----------------------------|
A|-----------------------4-------4-5-3--------------|
E|-------------------------1-3-1---------1~---------|
Composição de Criolo / Daniel Ganjaman / Marcelo Cabral / Rodrigo Campos
Colaboração e revisão:
  • Walter Brow
  • igor agueme
1.566 exibições

0 comentários

Ver todos os comentários

Conseguiu tocar?

1 Tocaram 0 Ainda não

Grave um vídeo tocando Duas de Cinco e nos envie!

00:00 / 00:00
Outros vídeos desta música
Repetir Qualidade Automático
Outros vídeos desta música
00:00 / 00:00
Automático

Cifra Club Pro

Aproveite o Cifra Club com benefícios exclusivos e sem anúncios
Cifra Club Pro
Aproveite o Cifra Club com benefícios exclusivos e sem anúncios
OK