Cifra Club

Freguês da Meia Noite

Criolo

Cifra: Principal (violão e guitarra)
tom: Bb
Intro:
         Gm           Eb7      D7
E|--3----------------3------2-2--------|
B|--3----------------2------1-1--------|
G|--3--------------3--------2-2--------|
D|--5----------0-1------1-0------0-----|
A|--5------0-1-------------------------|
E|--3--2-3--------------------------3--|

         Gm           Eb7      D7
E|--3----------------3------2-2--------|
B|--3----------------2------1-1--------|
G|--3--------------3--------2-2--------|
D|--5----------3-1--------0------0-----|
A|--5------0-1-------------------------|
E|--3--2-3-------------------------3---|

         Gm           Eb7      D7
E|--3----------------3------2-2--------|
B|--3----------------2------1-1--------|
G|--3--------------3--------2-2--------|
D|--5----------0-1------1-0------0-----|
A|--5------0-1-------------------------|
E|--3--2-3--------------------------3--|

(Na última é diferente):
         Gm         Eb  D7  F#°   
E|--3------------3---2---5---8---14--|
B|--3------------4---1---4---7---13--|
G|--3------------3---2---5---8---14--|
D|--5----------3-1---0---4---7---13--|
A|--5------0-1------------------------|
E|--3--2-3----------------------------|

     Gm
Meia Noite
                   D7
Em pleno Largo do Arouche
                         Cm
Em frente ao Mercado das Flores
                      D7
Há um restaurante francês
                Gm
E lá te esperei

Meia Noite
                   D7
Num frio que é um açoite
                     Cm
A confeiteira e seus doces
                D7
Sempre vem oferecer
                    Gm
Furta-cor de prazer

      D7
E não há como negar
            Cm
Que o prato a se ofertar
       D7         (Riff)
Não a faça salivar

Riff: (Durante o "salivar", ligando com o próximo acorde)

E|-2-3-5-------------------|
B|-------8-7---------------|
G|-----------8-7-5h7p5-3-2-|
D|-------------------------|
A|-------------------------|
E|-------------------------|

        Eb7
Num quartinho de ilusão
            D7
Meu cão que não late em vão
         Cm
No frio atrito meditei
      D7                   Gm
Dessa vez não serei seu freguês

(Repete intro)

     Gm
Meia Noite
                   D7
Num frio que é um açoite
                     Cm
A confeiteira e seus doces
                D7
Sempre vem oferecer
                    Gm
Furta-cor de prazer

      D7
E não há como negar
            Cm
Que o prato a se ofertar
       D7        (Riff)
Não a faça salivar

Riff: (Durante o "salivar", ligando com o próximo acorde de novo)

E|-2-3-5-------------------|
B|-------8-7---------------|
G|-----------8-7-5h7p5-3-2-|
D|-------------------------|
A|-------------------------|
E|-------------------------|
        Eb7
Num quartinho de ilusão
            D7
Meu cão que não late em vão
         Cm
No frio atrito meditei
      D7                   Gm
Dessa vez não serei seu freguês

(Repete intro)
Composição de Criolo
Colaboração e revisão:
75.149 exibições
    • ½ Tom
    • A
    • Bb
    • B
    • C
    • Db
    • D
    • Eb
    • E
    • F
    • F#
    • G
    • Ab
  • Adicionar à lista

    0 comentários

    Ver todos os comentários

    Conseguiu tocar?

    16 Tocaram 3 Ainda não

    Grave um vídeo tocando Freguês da Meia Noite e nos envie!

    00:00 / 00:00
    Outros vídeos desta música
    Repetir Qualidade Automático
    Outros vídeos desta música
    00:00 / 00:00
    Automático

    Cifra Club Pro

    Aproveite o Cifra Club com benefícios exclusivos e sem anúncios
    Cifra Club Pro
    Aproveite o Cifra Club com benefícios exclusivos e sem anúncios
    OK