Cifra Club

Aprenda

Lá Vem Você

Criolo

Cifra: Principal (violão e guitarra)
Quer fazer aulas de música com a gente? Responda essas perguntas
e nos ajude nesse projeto! →
tom: G
D        B7              Em
Lá vem você com seus larara
 A7         D        B7    Em
Lara laralauê larauê   lara
 A7        D
Lara larauê (2x)

B7          Em    A7              D    B7
Virando a esquina,   na porta do bar
            Em    A7              Am7   D
Sol de meio dia,     no copo um capote
       G        A7                D
Pra pensar, no almoço e depois no jantar
      B7       Em
Sem café pra tomar
     A7       Am7  D
Esperar o amanhã
       G                A7
Tanta gente na porta de bar
             D                  B7
Que vive à sorrir, que vive à chorar
         Em              A7
Eu só queria você meu benzinho
              D
Voltando pro lar

Refrão:
         B7              Em
Lá vem você com seus larara
 A7         D        B7     Em
Lara laralauê larauê  m lara
 A7        D
Lara larauê (2x)
        
B7          Em                 A7
Virando a esquina, um pouco de ginga
              D
Um pouco de malícia
                  B7                       Em
E quando a noite vem a gente esquece a preguiça
       A7                Am7    Am7/E   D
E ela vem no gingado de cá, de lá e de cá
             G             A7              D
Se for pra falar da conjectura e da concepção
                B7
Meu deus do céu
              Em               A7                 D
Maternidade irmão, com essa mulher pretendo me casar

Refrão:
        B7              Em
Lá vem você com seus larara
 A7         D        B7     Em
Lara laralauê larauê    lara
 A7       D
Lara larauê (2x)

B7     Em                A7                D
Pra crescer e ter sombra a árvore tem que vingar
        B7                 Em
Passa o tempo depois de colar
     A7                      Am7
Passarinhos pra então fermentar
               D    G  (Bordão: G G# A) A7
A semente que vem à copa
          D     (Bordão: A A# B) B7
Oferece atenção
           Em  (Bordão: G G# A) A7
Protege do sol
               Am7                   D
Outro dia um irmão que bebeu, que tomou
       G     (Bordão: G G# A)      A7   A7/G        D/F#              B7
Pra esquecer...     a    ...     mulher      que talvez não foi merecedor
Em            A7              D
Haja lari larara meu amigo doutor

Refrão:
         B7              Em
Lá vem você com seus larara
 A7         D        B7     Em
Lara laralauê larauê    lara
 A7       D
Lara larauê

Solo final:

E|---0-2-3---2-0---------------------------------------------|
B|-3---------------3-2---0---0-------------------------------|
G|-------------------------2---2-----0-2---0-2---0-2---------|
D|---------------------------------4-----4-----4-------------|
A|-----------------------------------------------------------|
E|-----------------------------------------------------------|

E|-----0---------------------0---------5-2-3-----------------|
B|---3-----3-2---0-2---0-------3---0-3---------3-1-0---------|
G|-4---------------------2-----------------------------------|
D|-----------------------------------------------------------|
A|-----------------------------------------------------------|
E|-----------------------------------------------------------|

E|-3-5---2-1-0-----0-3-7---6-5-------------------------------|
B|---------------2---------------7/8--7----------------------|
G|-----------------------------6-----------------------------|
D|-----------------------------------------------------------|
A|-----------------------------------------------------------|
E|-----------------------------------------------------------|

E|-----------------------------------------------------------|
B|-5-6-7-5-6-7-5-6-7-5-6-7-5-7-------------------------------|
G|-----------------------------7-----------------------------|
D|-----------------------------------------------------------|
A|-----------------------------------------------------------|
E|-----------------------------------------------------------|
Composição de Criolo
Colaboração e revisão:
  • Mateus Rocha
37.718 exibições
    • ½ Tom
    • A
    • Bb
    • B
    • C
    • Db
    • D
    • Eb
    • E
    • F
    • F#
    • G
    • Ab
  • Adicionar à lista

    0 comentários

    Ver todos os comentários

    Conseguiu tocar?

    6 Tocaram 3 Ainda não

    Grave um vídeo tocando Lá Vem Você e nos envie!

    00:00 / 00:00
    Outros vídeos desta música
    Repetir Qualidade Automático
    Outros vídeos desta música
    00:00 / 00:00
    Automático

    Cifra Club Pro

    Aproveite o Cifra Club com benefícios exclusivos e sem anúncios
    Cifra Club Pro
    Aproveite o Cifra Club com benefícios exclusivos e sem anúncios
    OK