Cifra Club

Aprenda

Lion Man

Criolo

Tab de baixo: Principal
Já pensou em usar uma coleção de roupas do Cifra Club? Responda as perguntas abaixo e nos ajude nessa missão! →
Verso
G|---------------------------------------------------------------------|
D|-12~--12~--12----------10-12~-12~--12--------------------------------|
A|--------------------12----------------------10~----------------------|
E|--------------10-10-------------------10-10--------------------------|

Refrão
G|---------------------------------------------------------------------|
D|-----3-7-5~--5-------5~-----3-7-5~--5-------5~-----------------------|
A|-0-3--------------------3-5---------------------3~-------------------|
E|---------------3~--3------------------3~--3--------------------------|
Composição de Criolo
Colaboração e revisão:
  • Walter Brow
407 exibições

0 comentários

Ver todos os comentários

Conseguiu tocar?

0 Tocaram 0 Ainda não

Grave um vídeo tocando Lion Man e nos envie!

00:00 / 00:00
Outros vídeos desta música
Repetir Qualidade Automático
Outros vídeos desta música
00:00 / 00:00
Automático

Cifra Club Pro

Aproveite o Cifra Club com benefícios exclusivos e sem anúncios
Cifra Club Pro
Aproveite o Cifra Club com benefícios exclusivos e sem anúncios
OK