Cifra Club

Cold

Crossfade

Cifra: Principal (violão e guitarra)
Selo Cifra Club: esta cifra foi revisada para atender aos critérios oficiais da nossa Equipe de Qualidade.
tom: C
Tuning - Drop D  [Low to High D A D G B E]

First off - I want to give credit to suntiger for making the
            first attempt on the Internet (that I have found)
            at tabbing this song.  However, like he said, it
            isn't perfect.  This is a much much closer tab,
            and although the solo isn't complete, I'm still 
            messing with it.  The wah pedal is just too talky
            for me to figure out right now.  
            Also, I'm pretty sure the song is just regular Drop D
            instead of Db Ab Db Gb Bb Eb.

[Verses 1 & 2]

E|------------------------------|------------------------|
B|------------------------------|------------------------|
G|------------------------------|------------------------|
D|--0----0----0-0-0----0-0-0----|-10---10--------7-7-7---|
A|--0----0----0-0-0----0-0-0----|-8----8---------7-7-7---|
D|--0----0----0-0-0----0-0-0----|-8----8---------7-7-7---|
pm.           . .      . .                       . . 

...me I see...                  ..right..      ..think of you
                               ...cannot win

...cold to you                 ...lies         ..different light
                               ...on my own    

[Bridge deal]

E|-------------------------------|---------------------|
B|-------------------------------|---------------------|
G|-------------------------------|---------------------|
D|---0-0---0-0--0--0-0--0-0-0----|--10----10---7-7-7---|
A|---0-0---0-0--0--0-0--0-0-0----|--8-----8----7-7-7---|
D|---0-0---0-0--0--0-0--0-0-0----|--8-----8----7-7-7---|
pm.             .  .    . .                    . .
       ...antidote                        ...that gets me..



E|----------------------------|-----------------|
B|----------------------------|-----------------|
G|----------------------------|-----------------|
D|--0-0---0-0--0--0-0--0-0-0--|-8-8-8-8-8-8-8-8-|
A|--0-0---0-0--0--0-0--0-0-0--|-8-8-8-8-8-8-8-8-|
D|--0-0---0-0--0--0-0--0-0-0--|-8-8-8-8-8-8-8-8-|
pm.            .  .    . .      . . . . . . . .  

...H-----i--------------g-----------hhhhhhhhhh


[Chorus]

E|---------------------|---------------------------------|
B|---------------------|---------------------------------|
G|---------------------|---------------------------------|
D|--8-----10-12-10--8--|-10---10----12--12-------3--3----|
A|--8-----8--8--8---8--|-10---10----10--10-------3--3----|
D|--8-----8--8--8---8--|-10---10----10--10-------3--3----|

What I...               ..Sorry for...        ...I am
...Never meant..        ..cold..        


[Interlude Part 1 - Clean]
Strum these up and down stroke alternate to get good sound
E|-----------------------------|-----------------------------|
B|-----------------------------|-13-13----------13-----6-6---|
G|o----------------------------|-12-12----------12-----5-5--o|
D|o--8h10---10h12-10h12p10-x-x-|-10-10--12--12--10-----3-3--o|
A|---8------8-----8-----8--x-x-|-10-10--10--10--10-----3-3---|
D|---8------8-----8-----8--x-x-|-10-10--10--10--10-----3-3---|

[Solo]

    

E|-------------------------|-------------------------------------|
B|------8b10r8--6--8--6~~--|-----8b10r8--6--8--------------------|
G|--5h7--------------------|-5h7---------------7-/-9~~~-10-\-7~~~|
D|-------------------------|-------------------------------------|
A|-------------------------|-------------------------------------|
D|-------------------------|-------------------------------------|



[Interlude Part 2 - Heavy]

E|---------------------|---------------------------------|
B|---------------------|---------------------------------|
G|---------------------|---------------------------------|
D|--8-----10-12-10--8--|-10---10----12--12-------3--3----|
A|--8-----8--8--8---8--|-10---10----10--10-------3--3----|
D|--8-----8--8--8---8--|-10---10----10--10-------3--3----|
...never really         ..see                  ..I keep
                    ...so deep                 ..to me
                       ..to go                ..I know
Outros vídeos desta música
    23.044 exibições
      • ½ Tom
      • A
      • Bb
      • B
      • C
      • Db
      • D
      • Eb
      • E
      • F
      • F#
      • G
      • Ab
    • Adicionar à lista

    Afinação da cifra

    Afinador online

      0 comentários

      Ver todos os comentários

      Entre para o Cifra Club PRO

      Tenha acesso a benefícios exclusivos no App e no Site

      • Chega de anúncios

      • Badges exclusivas

      • Mais recursos no app do Afinador

      • Atendimento Prioritário

      • Aumente seu limite de lista

      • Ajude a produzir mais conteúdo

      Cifra Club Pro

      Aproveite o Cifra Club com benefícios exclusivos e sem anúncios
      Cifra Club Pro
      Aproveite o Cifra Club com benefícios exclusivos e sem anúncios
      Ops (: Contenido disponible sólo en portugués.
      OK