Cifra Club

Aprenda

True Colors

Cyndi Lauper

Cifra: Principal (violão e guitarra)
tom: C
[Intro] Am7  G/B  C  F
        Am7  G/B  C  F

Parte 1 de 2

   Am7      G/B      C      F
E|-3-----3--3-----3--3----------------------|
B|---0-1------0-1------0-1--1----0-1--------|
G|--------------------------2---------------|
D|--------------------------3---------------|
A|-0-----0--2-----2--3----------------------|
E|--------------------------1--1------------|

Parte 2 de 2

   Am7      G/B      C      F
E|-3-----3--3-----3--3----------------------|
B|---0-1------0-1------0-1--1---------------|
G|--------------------------2---------------|
D|--------------------------3---------------|
A|-0-----0--2-----2--3----------------------|
E|--------------------------1---------------|

[Variação Intro]

   Am7      G/B      C      F9
E|-3-----3--3-----3--3------3---------------|
B|---0-1------0-1------0-1--1----0-1--------|
G|--------------------------2--------2------|
D|--------------------------3---------------|
A|-0-----0--2-----2--3----------------------|

[Primeira Parte]

   Am7  G/B  C     C/F              Am7  G
E|-0----3--------3------------------0----3--|
B|-1----3----5-6---8---5---8-6-5----1----3--|
G|-0----0----5-----5-----5-5-----7--0----0--|
D|-----------------5-5-----5----------------|
A|-0----2----3-----8-------8--------0-------|
E|---------------------------------------3--|

              Am7  G/B
You with the sad   eyes
 C           C/F
Don't be discouraged

Oh I realize
      Am7          G
It's hard to take courage

[Segunda Parte]

Parte 1 de 2

   C        Dm       C/E     F
E|------------------------------------------|
B|-5-----5--6-----6--8-------10-------------|
G|-----5--------7----------9-10-------------|
D|---5--------7---------10---10-------------|
A|-3--------5--------7-------8--------------|
E|------------------------------------------|

Parte 2 de 2

   Am7    G     F7M/C  C
E|-3------3---------------------------------|
B|---1-x--3--x--1--x---1--------------------|
G|---0-x--0--x--2--x---0--------------------|
D|---2-x-----x--3--x---2--------------------|
A|---0-x-----x--3--x---3--------------------|
E|--------3---------------------------------|

      C             Dm
In a world full of people
 C/E          F
You can lose sight of it all
         Am7           G
And the darkness so inside you
              F7M/C    C
Can make you feel so small

[Refrão]

Parte 1 de 4

   F     C         C/G   G
E|------------------------------------------|
B|-1--x--1---------1--x--0------------------|
G|-2--x--0----0----0--x--0----0-------------|
D|-3--x--2--2---2--2--x--0--0---0-----------|
A|----x--3----x-----------------------------|
E|-1---------------3--x--3----x-------------|

Parte 2 de 4

   F     C/E       F     G
E|------------------------------------------|
B|-1--x--1---------1--x--3------------------|
G|-2--x--0----0----2--x--0----0-------------|
D|-3--x--2--2---2--3--x--0--0---0-----------|
A|----x-------x-----------------------------|
E|-1-----0---------1--x--3----x-------------|

Parte 3 de 4

   F     C         F     Am7
E|------------------------------------------|
B|-1--x--1---------1--x--1------------------|
G|-2--x--0----0----2--x--0----0-------------|
D|-3--x--2--2---2--3--x--2--2---2-----------|
A|----x--3----x----------0------------------|
E|-1---------------1--x-------x-------------|

Parte 4 de 4

   F7M/C  C         F7M/C  C         G
E|-----------------------------------3------|
B|-1--x---1---------1--x---1---------3------|
G|-2--x---0----0----2--x---0----0----0------|
D|-3--x---2--2---2--3--x---2--2---2--0------|
A|-3--x---3----x----3--x---3---------2------|
E|-----------------------------------3------|

                 F   C
But I see your true colors
  C/G      G
Shining through
             F   C/E
I see your true colors
      F           G
And that's why I love you
    F          C       F         Am7
So don't be afraid to let them show
       F7M/C  C
Your true    colors
  F7M/C  C          G
True    colors are beautiful

Like a rainbow

[Variação da Intro]

( Am7  G/B  C  F9 )
( Am7  G/B  C  F9 )

[Primeira Parte]

            Am7   G/B
Show me a smile then
 C          C/F
Don't be unhappy, can't remember
        Am7          G
When I last saw you laughing

[Segunda Parte]

     C                    Dm
If this world makes you crazy
     C/E              F
And you've taken all you can bear
     Am7    G
You call me up
              F7M/C        C
Because you know I'll be there

[Refrão]

                 F   C
But I see your true colors
  C/G      G
Shining through
             F   C/E
I see your true colors
      F           G
And that's why I love you
    F          C       F         Am7
So don't be afraid to let them show
       F7M/C  C
Your true    colors
  F7M/C  C          G
True    colors are beautiful

Like a rainbow

[Variação da Intro]

( Am7  G/B  C  F9 )
( Am7  G/B  C  F9 )

[Primeira Parte]

( Am7  G/B  C  C/F )

I can't remember
        Am7          G
When I last saw you laughing

[Segunda Parte]

     C                    Dm
If this world makes you crazy
     C/E              F
And you've taken all you can bear
     Am7    G
You call me up
              F7M/C        C
Because you know I'll be there

[Refrão Final]

[Variação Refrão Final]

Parte 1 de 4

   F     C         C/G   G
E|------------------------------------------|
B|-1--x--1---------1--x--0------------------|
G|-2--x--0----0----0--x--0----0-------------|
D|-3--x--2--2---2--2--x--0--0---0-----------|
A|----x--3----x-----------------------------|
E|-1---------------3--x--3----x-------------|

Parte 2 de 4

   F     C/E       F     G
E|------------------------------------------|
B|-1--x--1---------1--x--3------------------|
G|-2--x--0----0----2--x--0----0-------------|
D|-3--x--2--2---2--3--x--0--0---0-----------|
A|----x-------x-----------------------------|
E|-1-----0---------1--x--3----x-------------|

Parte 3 de 4

   F     C         E     Am7
E|------------------------------------------|
B|-1--x--1------------x--1------------------|
G|-2--x--0---------1--x--0------------------|
D|-3--x--2---------2--x--2------------------|
A|----x--3---------2-----0------------------|
E|-1---------------0--x---------------------|

Parte 4 de 4

   F7M/C  C         F7M/C  C         G
E|-----------------------------------3------|
B|-1------1---------1------1---------3------|
G|-2------0---------2------0---------0------|
D|-3------2---------3------2---------0------|
A|-3------3---------3------3---------2------|
E|-----------------------------------3------|

                 F   C
But I see your true colors
  C/G      G
Shining through
             F   C/E
I see your true colors
      F           G
And that's why I love you
    F          C       F         Am7
So don't be afraid to let them show
       F7M/C  C
Your true    colors
   F7M/C  C
True     colors
  F7M/C  C           G
True    colors are shining through
             F   C/E
I see your true colors
      F           G
And that's why I love you
    F          C       E         Am7
So don't be afraid to let them show
       F7M/C  C
Your true    colors
  F7M/C  C          G
True    colors are beautiful

Like a rainbow

[Repete a Intro] Am7  G/B  C  F9

   Am7      G/B      C      F9
E|-3-----3--3-----3--3------3---------------|
B|---0-1------0-1------0-1--1---------------|
G|--------------------------2---------------|
D|--------------------------3---------------|
A|-0-----0--2-----2--3----------------------|
E|------------------------------------------|

Composição de Billy Steinberg / Tom Kelly
Colaboração e revisão:
  • Gustavo Cunha
  • Rodrigo Silveira
  • Naira Pereira
191.678 exibições
  • Simplificar cifra
    • ½ Tom
    • A
    • Bb
    • B
    • C
    • Db
    • D
    • Eb
    • E
    • F
    • F#
    • G
    • Ab
  • Adicionar à lista

    0 comentários

    Ver todos os comentários

    Conseguiu tocar?

    17 Tocaram 8 Ainda não

    Grave um vídeo tocando True Colors e nos envie!

    00:00 / 00:00
    outros vídeos desta música
    repetir qualidade Automático
    Outros vídeos desta música
    00:00 / 00:00
    Automático
    Capítulos
    • Tocando a música
    • Dicas Iniciais / Equipamentos
    • Acordes da Introdução
    • Tocando a Introdução
    • Introdução - Parte 1 de 2
    • Introdução - Parte 2 de 2
    • Introdução (variação)
    • Acordes da Primeira Parte
    • Tocando a Primeira Parte
    • Primeira Parte
    • Acordes da Segunda Parte
    • Tocando a Segunda Parte
    • Segunda Parte - Parte 1 de 2
    • Segunda Parte - Parte 2 de 2
    • Acordes do Refrão
    • Tocando o Refrão
    • Refrão - Parte 1 de 4
    • Refrão - Parte 2 de 4
    • Refrão - Parte 3 de 4
    • Refrão - Parte 4 de 4
    • Refrão - Parte 3 de 4 (variação final)
    • Refrão - Parte 4 de 4 (variação final)
    • Encerramento
    • Ficha Técnica

    Cifra Club Pro

    Aproveite o Cifra Club com benefícios exclusivos e sem anúncios
    Cifra Club Pro
    Aproveite o Cifra Club com benefícios exclusivos e sem anúncios
    OK