Cifra Club

Que tengo que hacer

Daddy Yankee

Cifra: Versão 3 (violão e guitarra)
tom: C
Solo es el Estribillo pero algo,es algo (:
Espero que les guste.

E|-0-----------------------0---------------------------|
B|--3-1-0-------0-0---1------3-1-0-------1-------------|
G|--------2-2-2-----2---2----------2-2-2---0-2---------|
D|-----------------------------------------------------|
A|-----------------------------------------------------|
E|-----------------------------------------------------|

E|-0-----------------------0----------0----------------|
B|--3-1-0-------0-0---1------3-1--3-1---3-1-0----------|
G|--------2-2-2-----2---2----------------------2-------|
D|-----------------------------------------------------|
A|-----------------------------------------------------|
E|-----------------------------------------------------|
00:00 / 00:00
Outros vídeos desta música
Repetir
Outros vídeos desta música
Composição de Raymond Ayala
    • ½ Tom
    • A
    • Bb
    • B
    • C
    • Db
    • D
    • Eb
    • E
    • F
    • F#
    • G
    • Ab
  • Adicionar à lista

    0 comentários

    Ver todos os comentários

    Conseguiu tocar?

    0 Tocaram 0 Ainda não

    Grave um vídeo tocando Que tengo que hacer e nos envie!

    Entre para oCifra Club PRO

    Tenha acesso a benefícios exclusivos no App e no Site

    • Chega de anúncios

    • Prioridade de compra em lançamentos

    • Mais recursos no app do Afinador

    • Atendimento Prioritário

    • Descontos nos produtos Cifra Club

    • Ajude a produzir mais conteúdo

    00:00 / 00:00

    Cifra Club Pro

    Aproveite o Cifra Club com benefícios exclusivos e sem anúncios
    Cifra Club Pro
    Aproveite o Cifra Club com benefícios exclusivos e sem anúncios
    OK