Cifra Club

Looking For You

Daiki Kasho

Cifra: Principal (violão e guitarra)
Selo Cifra Club: esta cifra foi revisada para atender aos critérios oficiais da nossa Equipe de Qualidade.
tom: Db
E|-------------------------------------------|
B|--------9---6-----9---6----9---6----9---6--|
G|----6---------6---------6--------6---------|
D|-4-----------------------------------------|
A|-------------------------------------------|
E|-------------------------------------------|

The next part is:

E|-------------------------|
B|---6-6---6-6---6-6---6-6-|
G|-6-----6-----6-----6-----|
D|-------------------------|
A|-------------------------|
E|-------------------------|
Outros vídeos desta música
    16 exibições
      • ½ Tom
      • A
      • Bb
      • B
      • C
      • Db
      • D
      • Eb
      • E
      • F
      • F#
      • G
      • Ab
    • Adicionar à lista

    Afinação da cifra

    Afinador online

      0 comentários

      Ver todos os comentários

      Conseguiu tocar?

      0Tocaram0Ainda não

      Grave um vídeo tocando Looking For You e nos envie!

      Toque também

      1. Imagem do artista Dakota StarSay Goodbye Dakota Star
      2. Imagem do artista Dakota StarTogether Alone Dakota Star

      Entre para o Cifra Club PRO

      Tenha acesso a benefícios exclusivos no App e no Site

      • Chega de anúncios

      • Badges exclusivas

      • Mais recursos no app do Afinador

      • Atendimento Prioritário

      • Aumente seu limite de lista

      • Ajude a produzir mais conteúdo

      Cifra Club Pro

      Aproveite o Cifra Club com benefícios exclusivos e sem anúncios
      Cifra Club Pro
      Aproveite o Cifra Club com benefícios exclusivos e sem anúncios
      Ops (: Contenido disponible sólo en portugués.
      OK