Cifra Club

Together Alone

Dakota Star

Cifra: Principal (violão e guitarra)
Selo Cifra Club: esta cifra foi revisada para atender aos critérios oficiais da nossa Equipe de Qualidade.
tom: A
E|-4------4------------| e|-4-----------|
B|---5------5----7--5--| B|---5---5-b7--|
G|-----4------4--------| x9 G|-----4-------|
D|---------------------| D|-------------|
A|---------------------| A|-------------|
E|---------------------| E|-------------|

Guitar 2 3rd time and onwards

E|----------------------|
B|----------------------|
G|----------------------|
D|-------4-----6-----2--|
A|-2-----2-----4-----0--|
E|-0--------------------|

[Verse]

(Random palm muting)
E|-----------------------------------------------------------------|
B|-----------------------------------------------------------------|
G|-----------------------------------------------------------------| x4
D|-----------------4-4-4-4-4-4-4-4-2-2-2-2-2-2-2-2-----------------|
A|-2-2-2-2-2-2-2-2-2-2-2-2-2-2-2-2-0-0-0-0-0-0-0-0-4-4-4-4-4-4-4-4-|
E|-0-0-0-0-0-0-0-0---------------------------------2-2-2-2-2-2-2-2-|

[Chorus]

E|---------------------------------------------|
B|---------------------------------------------|
G|---------------------------------------------| x2
D|----4--2--------4--------------------2-------|
A|-2--2--0--4--2--2--4-4---4-4---4-4---0-------|
E|-0--------2--0-----2-2-0-2-2-0-2-2-0---------|

[Solo]

E|---------------------------------------------------------------|
B|---------------------------------------------------------------|
G|---------------------------------------------------------------|
D|-------6-6-6-------6-6-6-6-7-6--------6-6-6-------6-6-6-6-7-9\-|
A|-7-7-7-------7-7-7--------------7-7-7-------7-7-7--------------|
E|---------------------------------------------------------------|

E|---------------------------------------------------------------|
B|---------------------------------------------------------------|
G|---------------------------------------------------------------|
D|-------6-6-6-------6-6-6-6-7-6---------------------------------|
A|-7-7-7-------7-7-7-------------5--/9---/11--7------------------|
E|---------------------------------------------------------------|

then:

E|-12-10-10-9-----12-10-10---|
B|------------/10------------|
G|---------------------------|
D|---------------------------|
A|---------------------------|
E|---------------------------|

[Outro]

E|----------------------------------------------------|
B|----------------------------------------------------|
G|----------------------------------------------------| x2
D|-----4-------7-------4------------------------------|
A|-2---2---4---5---2---2---4-4--4-4-4--4-4-4--4-4-4-4-|
E|-0-------2-------0-------2-2--2-2-2--2-2-2--2-2-2-2-|

Guitar 2 second time only

E|---------------------------------------------------|
B|---------------------------------------------------|
G|---------------------------------------------------|
D|-------6---6-6h7p6---6---6-6-7-9---6---6-6-7-6-----|
A|-7-7-7---7---------7---7---------7---7-------------|
E|---------------------------------------------------|



************************************

| b  Bend
| \  Slide down
| /  Slide up
| h  Hammer-on
| p  Pull-off
| x  Dead note
Outros vídeos desta música
    12 exibições
      • ½ Tom
      • A
      • Bb
      • B
      • C
      • Db
      • D
      • Eb
      • E
      • F
      • F#
      • G
      • Ab
    • Adicionar à lista

    Afinação da cifra

    Afinador online

      0 comentários

      Ver todos os comentários

      Conseguiu tocar?

      0Tocaram0Ainda não

      Grave um vídeo tocando Together Alone e nos envie!

      Toque também

      1. Imagem do artista OlíviaFlow Tom Jobim Olívia
      2. Imagem do artista MonoralKiri Monoral
      3. Imagem do artista Daiki KashoIts All About You Daiki Kasho
      4. Imagem do artista Base Ball Bear2340 Base Ball Bear

      Entre para o Cifra Club PRO

      Tenha acesso a benefícios exclusivos no App e no Site

      • Chega de anúncios

      • Badges exclusivas

      • Mais recursos no app do Afinador

      • Atendimento Prioritário

      • Aumente seu limite de lista

      • Ajude a produzir mais conteúdo

      Cifra Club Pro

      Aproveite o Cifra Club com benefícios exclusivos e sem anúncios
      Cifra Club Pro
      Aproveite o Cifra Club com benefícios exclusivos e sem anúncios
      Ops (: Contenido disponible sólo en portugués.
      OK