Cifra Club

Na Mesa do Rei

Damares

Cifra: Principal
exibições 106.941
Tom: B
Intro: B9  G#m  F#
       G#m  F#  E  F#7(4/9)

Primeira Parte:

    B9              E9/B      B9  F#/B
Disseram que eu não ia conseguir
    B9                               F#
Disseram que os meus sonhos acabaram    ali
  E                        B9
Quando os meus pés se quebraram
       F#     F#4     F#
Me zombaram, me criticaram
 B9          E9/B            B9      F#/B
Me mandaram para a terra de Lo-debar
 B9                      F#
Terra que se chamava esquecimento
E                     B/D#
E naquele lugar sozinho fiquei
      F#4  F#       F#4   F#
Humilhado,    desamparado

Segunda Parte:

 E                            B9
Mas no coração havia uma esperança
            F#              F#4  F#
O rei prometeu não se esquecer      de mim
E                    B9                          F#
Eu sei que esse dia vai chegar e a carruagem do rei
      F#4         F#        E  F#    B9  F#7(4/9)
Na cidade vou ver entrar, pra me buscar

Refrão:

                B9
Eu vou me assentar à mesa do rei
          F#
Eu vou comer na mesa do rei
                     E
E todos que me humilharam vão me ver ali
                 B9                    F#
E vão ter que saber que fui convidado sim
    E/G#    F#/A#  B9
Eu vou receber        as terras que perdi
              F#
E todos os tesouros que meu pai deixou
        B/D#  E
Quando na  batalha teve que lutar
         B9       F#
E a sua vida foi levada
     E              B9
É assim quando Deus    promete
         E                   F#         B9
O tempo pode passar, mas de você não se esquece

Base Solo:

B9  F#/A#  G#m  F#  E  B9  A/B  B/D#

Solo:

Parte 1 de 3

E|-------------7h9-9/11---------------------------------|
B|-9h11-11/12------------------12h14-12h14-14p12\11-12--|
G|-----------------------11h13--------------------------|
D|------------------------------------------------------|
A|------------------------------------------------------|
E|------------------------------------------------------|

Parte 2 de 3

E|------------------------------------------------------|
B|-11h12-11--------------------12-14b16r14-12-----------|
G|----------11----11h13--11h13--------------------------|
D|-------------13---------------------------------------|
A|------------------------------------------------------|
E|------------------------------------------------------|

Parte 3 de 3

E|-9------9-11----12-14-14b16r14b16~--------------------|
B|-----10------12---------------------------------------|
G|---9--------------------------------------------------|
D|------------------------------------------------------|
A|------------------------------------------------------|
E|------------------------------------------------------|

(Repete Segunda Parte)

(Repete Refrão 2x)

Final:

E9/B  B9  E  F#7(4/9)  G#m  F#  E  F#7(4/9)  B9
Acordes para:
    Composição: Tângela VieiraColaboração e revisão:

    0 comentários

      mostrar mais comentários

      Conseguiu tocar?

      5tocaram1ainda não

      Grave um vídeo tocando Na Mesa do Rei e mande pra gente!

      00:00 / 00:00
      outros vídeos desta música
      repetirqualidadeautomática
      Outro vídeos desta música
        00:00 / 00:00
        automática
        OK