Cifra Club

Junto a Tus Pies

Danilo Montero

Cifra: Principal
exibições 1.601
Tom: C
Intro: 
 e|-------------------------------------------------------------| 
B|--------3/5--3--1--3--5--3-----0----1/3--1--0--1--3--1-------| 
G|----0--------------------------------------------------------| 
D|-------------------------------------------------------------| 
A|-------------------------------------------------------------| 
E|-------------------------------------------------------------| 

e|-------------------------------------------------------------| 
B|-------------0--1/3-------------------0--1/3-----------------| 
G|----3--2--2----------2--0------2---2-------------------------| 
D|-------------------------------------------------------------| 
A|-------------------------------------------------------------| 
E|-------------------------------------------------------------| 

e|-------------------------5--3--------------------------------| 
B|--------3/5--3--1--3--5-----------0--1/3--5--3--5------------| 
G|----0--------------------------------------------------------| 
D|-------------------------------------------------------------| 
A|-------------------------------------------------------------| 
E|-------------------------------------------------------------| 

e|-------------------------------------------------------------| 
B|-------------0--1/3----------------------------1-------------| 
G|----3--2--2----------2--0------2---4--5--4--5----------------| 
D|-------------------------------------------------------------| 
A|-------------------------------------------------------------| 
E|-------------------------------------------------------------| 

Al mismo tiempo de la intro se arpegia: 
C - G - Em - Am 
F - Em - F - G  
C - G - Em - Am  
F - Em - D - F - G - C 

Verso 1: 
C                   G 
Junto a tus pies quiero posar 
Am             Em 
Por tu amor dejarme llevar 
C                 G 
Junto a tus pies no sé articular 
Am           G 
Ninguna voz tiene lugar (A|-3-2-0-|) 

Pre-Coro: 
Am       Em           G         F 
Junto al  Maestro me quiero sentar 
Dm        Em      F     G 
Decirle le amo, en oración 

Coro: 
 C                G 
Tocar tu manto Señor 
 Em                   Am 
Lavar los pies de mi Dios 
 F             Em          F          G 
Saber que mi corona es estar junto a Ti 
 C                G 
Tocar tu manto Señor 
 Em                   Am 
Lavar los pies de mi Dios 
 F             Em   Dm    F   G       C 
Saber que mi corona es estar junto a Ti 

Verso 2: 
 C                   G 
Junto a Tus pies me envuelve la paz 
 Am                 Em 
Cuerdas de amor capturan mi ser 
 C                   G 
Junto a Tus pies tu voz me atraviesa 
  Am                  G 
Mi alma y mi ser que tanto te anhelan 

Pre-Coro 

Coro 

Final: 
B|--3--5--3--1--3--5--3--| F - C
Acordes para:
    Colaboração e revisão:
    • Paulo Zeferino

    0 comentários

      mostrar mais comentários

      Conseguiu tocar?

      0tocaram0ainda não

      Grave um vídeo tocando Junto a Tus Pies e mande pra gente!

      00:00 / 00:00
      outros vídeos desta música
      repetirqualidadeautomática
      Outro vídeos desta música
        00:00 / 00:00
        automática
        OK