Cifra Club

Aprenda

Até o amanhecer

Darvin

Cifra: Principal (violão e guitarra)
tom: D
Intro: D Abafado

E|----------------------------------|
B|----------------------------------|
G|--7-7-7-7-7-7-7-7-x-x-x-x-x-x-x-x-|
D|--7-7-7-7-7-7-7-7-x-x-x-x-x-x-x-x-|
A|--5-5-5-5-5-5-5-5-x-x-x-x-x-x-x-x-|
E|----------------------------------|

(Baixo)

G|-------------------------------|
D|-------------------------------|
A|-5-5-5-4-4-4-4-2-2-2-----------|
E|---------------------5-5-5-5-3-|

                                      G5        A#5
Ela só quer achar alguém que a trate bem

Solinho 2X

E|-------------------------------------------------|
B|--7-7-X---5-5-5-5-5-5-5---7-7-7------------------|
G|--------7-----------------------7-7-7-7-7-7-7----|
D|-------------------------------------------------|
A|-------------------------------------------------|
E|-------------------------------------------------|

D5              A5       B5             G5
Cabelo solto, tatuagem, blusa apertada, maquiagem
Olhos azuis pintados, procurando ser alguém
Lembrando um tempo já perdido de amor visando o paraíso
E ele se foi pra nunca voltar mais

(Baixo)                                 G5      A#5
Ela só quer pensar em coisas mais normais

Solinho 2x

D5              A5              B5              G5
Levando as juras mentirosas, minutos que viravam horas
E a nuvem cor de rosa que ilumina o sol
Vivendo em um pesadelo, tentando não se olhar no espelho
Ninguém sabe ao certo o que ela tem

(Baixo)                                 G5      A#5
Ela só quer achar alguém que a trate bem
                                    Depois
E|------------5-------------5---|-------------|
B|-7-5---5------8-7-5---5-------|-7---7-8-7---|
G|-----7---7----------7---7-----|---7---------|
D|------------------------------|-------------|
A|------------------------------|-------------|
E|------------------------------|-------------|

D5               A5                     G#5
O tempo vai passar, ninguém vai agüentar
        G5           D5                 A5
Ouvir de novo ela chorar, sem nada pra dizer
G#5             G5                       D5     A5      B5      G5
Ela só passa a noite inteira em frente a TV
              D5        A5      B5      G5
Até o amanhecer

Solo (viagem total... de ouvido numm é facil... =P )
                            D5  C#5     B5      A5      G5
E|-----------5-----------|--------------5-------------------------|
B|-7-5---5-----7-5---5---|--8-7---8-7-----7---8-7---8-7---8-7-7---|
G|-----7---7-------7---7-|------7-----7-----7-----7-----7-------7-|
D|-----------------------|----------------------------------------|
A|-----------------------|----------------------------------------|
E|-----------------------|----------------------------------------|

ae repete mais um pedaço da música, os mesmos solos já citados acima...


abraço a todos e um beijo para uma pessoal muito especial que
me apresentou essa musica. Greicy, essa é para você!! =****
Compositor não encontrado.
Colaboração e revisão:
  • Ricardo Cristofolini
40.871 exibições
    • ½ Tom
    • A
    • Bb
    • B
    • C
    • Db
    • D
    • Eb
    • E
    • F
    • F#
    • G
    • Ab
  • Adicionar à lista

    0 comentários

    Ver todos os comentários

    Conseguiu tocar?

    1 Tocaram 0 Ainda não

    Grave um vídeo tocando Até o amanhecer e nos envie!

    00:00 / 00:00
    Outros vídeos desta música
    Repetir Qualidade Automático
    Outros vídeos desta música
    00:00 / 00:00
    Automático

    Cifra Club Pro

    Aproveite o Cifra Club com benefícios exclusivos e sem anúncios
    Cifra Club Pro
    Aproveite o Cifra Club com benefícios exclusivos e sem anúncios
    OK