Cifra Club

Aprenda

É Tão Raro

Darvin

Cifra: Principal (violão e guitarra)
tom: A
[Intro]

E|-------------|
B|-------------|
G|-13----------|
D|---13-11-10--|
A|-------------|
E|-------------|

E|--------------------------------------|
B|--------------------------------------|
G|-13-----------------------------------|
D|---13-11-10-11-13-11-10-11-10---------|
A|-----------------------------11-13-11-|
E|--------------------------------------|

G#                           Cm
Será que ela não lembra de mim
Fm                        C# 
Por que ela não liga pra minha casa
G#                    Cm
Será que vai ser sempre assim
Fm                      C# 
Talvez ela me ache a pessoa errada

G#                       Cm
Será que já falaram de mim                   
                    Fm      C#               
Ou que o meu filme queimou                   
G#                        Cm                 
Será que vai ser sempre assim                
           Fm          C#             Fm     
Já que a gente só se encontra de passagem    

E|----------|
B|----------|
G|---13-----|
D|---x------|
A|---11-----|
E|----------|
                                            
        C#       C5               C#
É tão raro, tão difícil estarmos sós   

E|------------------------------|
B|------------------------------|
G|------------------------------|
D|------10-11-13-11-10-11-10----|
A|-11-13--------------------11--|
E|------------------------------|

C5          C#            Fm          
Entre os lençóis ou mesmo           
            C#         C5     C#    
De mãos dadas, passeando por aí     

E|------------------------------|
B|------------------------------|
G|------------------------------|
D|------10-11-13-11-10-11-10----|
A|-11-13--------------------11--|
E|------------------------------|

C5          C#               G#         
Quer se divertir, é só chamar

G#     D#    A#m        C#   
 Não vá falar que eu não falei
G#    D#     A#m           C#                 
 Não vá pensar o que eu pensei                
G#    D#        A#m           C#              
 Não diga que a vida é sempre igual           
G#    D#    A#m        C#                     
 Normal tentar falar de amor de novo          

E|----------|
B|----------|
G|---13-----|
D|---x------|
A|---11-----|
E|----------|

( G#  Fm  C#  G#  Cm  Fm  C# )

G#                           Cm
Por que ela insiste sempre em dizer
Fm                        C# 
É cedo, vamos nos conhecer melhor
G#                           Cm 
Eu acho que ela quer me matar
Fm                        C# 
O jeito que ela tem de me olhar                                          
G#           Cm      Fm    C#                  
Não vai, ela não vai mudar
G#                         Cm                  
Será que vai ser sempre assim                  

          Fm            C#                Fm
Quando a gente se esbarrar nos corredores
        C#       C5               C#
É tão raro, tão difícil estarmos sós

E|----------|
B|----------|
G|---13-----|
D|---x------|
A|---11-----|
E|----------|

E|------------------------------|
B|------------------------------|
G|------------------------------|
D|------10-11-13-11-10-11-10----|
A|-11-13--------------------11--|
E|------------------------------|

C5          C#            Fm          
Entre os lençóis ou mesmo           
            C#         C5     C#    
De mãos dadas, passeando por aí     

E|------------------------------|
B|------------------------------|
G|------------------------------|
D|------10-11-13-11-10-11-10----|
A|-11-13--------------------11--|
E|------------------------------|

C5          C#               G#         
Quer se divertir, é só chamar
G#    D#        A#m       C#       
 Não vá falar que eu não falei
G#    D#     A#m           C#                 
 Não vá pensar o que eu pensei                
G#    D#         A#m           C#             
 Não diga que a vida é sempre igual           
G#    D#       A#m          C#                
 Normal tentar falar de amor de novo          

E|----------|
B|----------|
G|---13-----|
D|---x------|
A|---11-----|
E|----------|

C5                                  D#
Deitados na areia olhando o sol se pôr
Mais uma vez

( G#  C5  C#  F#  C# )
( G#  C5  C#  F#  C# )
( G#  C5  C#  F#  C# )
( G#  C5  C#  F#  C# )
( G#  Cm  Fm  C# )

[Solo]

E|----------------------------------------|
B|----------------------------------------|
G|--8-5-6-5-8----5-6-5-8----5-6-8-6-5-6-5-|
D|----------------------------------------|
A|----------------------------------------|
E|----------------------------------------|

 G#    D#     A#m          C#                    
Não vá falar que eu não falei
G#      D#     A#m          C#               
Não vá pensar o que eu pensei                   
G#   D#          A#m           C#             
 Não diga que a vida é sempre igual           
G#   D#           A#m       C#               
Normal tentar falar de amor de novo          

E|----------|
B|----------|
G|---13-----|
D|---x------|
A|---11-----|
E|----------|

( G#  C5  C# )

E|--------------------------------------------------|
B|--------------------------------------------------|
G|-13----------13-----------13----------13----------|
D|---13-11-10-----13-11-10----13-11-10----13-11-10--|
A|--------------------------------------------------|
E|--------------------------------------------------|
Composição de Thiago Niemeyer
Colaboração e revisão:
85.696 exibições
    • ½ Tom
    • A
    • Bb
    • B
    • C
    • Db
    • D
    • Eb
    • E
    • F
    • F#
    • G
    • Ab
  • Adicionar à lista

    0 comentários

    Ver todos os comentários

    Conseguiu tocar?

    2 Tocaram 0 Ainda não

    Grave um vídeo tocando É Tão Raro e nos envie!

    00:00 / 00:00
    Outros vídeos desta música
    Repetir Qualidade Automático
    Outros vídeos desta música
    00:00 / 00:00
    Automático

    Cifra Club Pro

    Aproveite o Cifra Club com benefícios exclusivos e sem anúncios
    Cifra Club Pro
    Aproveite o Cifra Club com benefícios exclusivos e sem anúncios
    OK