Cifra Club

Aprenda

The Best Deceptions

Dashboard Confessional

Cifra: Principal (violão e guitarra)
tom: D
Afinação: Eb padrão   /*fazer acordes como na afinação normal ;-) */ 

Introdução:
Eb||-----------------------------------|
Bb||-----------------------------------|
F#||------2-------2-------2------------|
C#||--0-0---4---0---4---0---4-5-4-2-5--|
Ab||----------4-------2----------------|
Eb||-----------------------------------|

Eb|-----------------------------------||
Bb|-----------------------------------||
Gb|------2-------2-------2------------||
Db|--0-0---4---0---4---0---4-5-4-2-0--||
Ab|----------4-------2----------------||
Eb|-----------------------------------||

Verso:
     D         D/C#      Bm7
Eb|--2---2-2---2---2-2---2---2-2--------------|
Bb|--3---3-3---3---3-3---3---3-3--------------|
Gb|--2---2-2---2---2-2---2---2-2--------------|
Db|--0---0-0-------------4---4-4---5-4-2-4----|  /*tocar dessa forma 
Ab|------------4---4-4---2---2-2--------------|  durante a música*/
Eb|-------------------------------------------|

Letra Cifrada:

D         D/C#       Bm7        
I heard about your trip. 
I heard about your souvenirs. 
I heard about the cool breeze, in the cool nights, 
and the cool guys that you spent them with. 
Well I guess I should have heard of them from you. 
I guess I should have heard of them from you. 

D                     A4     G
Don't you see, don't you see, 
that the charade is over? 
And all the "Best Deceptions" and "Clever Cover Story" awards go to you. 
So kiss me hard
'cause this will be the last time that I let you. 
You will be back someday 
and this award kiss that tells of other people's lips will be of service 
to keepin' you away. 

Introdução:

D         D/C#       Bm7        
I heard about your regrets.
I heard that you were feeling sorry. 
I heard from someone that you wish you could set things right between us. 
Well I guess I should have heard of them from you. 
I guess I should have heard of them from you. 

(A última parte fica melhor usando os acorde com pestana.)

D                     A4     G
Don't you see, don't you see, 
that the charade is over? 
And all the "Best Deceptions" and "Clever Cover Story" awards go to you. 
So kiss me hard
'cause this will be the last time that I let you. 
You will be back someday 
and this award kiss that tells of other people's lips will be of service 
to keepin' you away. 

D                  A                 Bm7 
I'm waiting for blood to flow to my fingers,
             G                       D                (mesmas notas até o fim)
I'll be all right when my hands get warm. 
Ignoring the phone, I'd rather say nothing. 
I'd rather you'd never heard my voice.
You're calling to late, 
too late to be gracious 
and you do not warrant long good-byes. 

You're calling too late.
Composição de Chris Carrabba
Colaboração e revisão:
  • Felipe Andrade
15.973 exibições
    • ½ Tom
    • A
    • Bb
    • B
    • C
    • Db
    • D
    • Eb
    • E
    • F
    • F#
    • G
    • Ab
  • Adicionar à lista

    0 comentários

    Ver todos os comentários

    Conseguiu tocar?

    0 Tocaram 1 Ainda não

    Grave um vídeo tocando The Best Deceptions e nos envie!

    00:00 / 00:00
    Outros vídeos desta música
    Repetir Qualidade Automático
    Outros vídeos desta música
    00:00 / 00:00
    Automático

    Cifra Club Pro

    Aproveite o Cifra Club com benefícios exclusivos e sem anúncios
    Cifra Club Pro
    Aproveite o Cifra Club com benefícios exclusivos e sem anúncios
    OK