Cifra Club

Love

Daughter

Tab de baixo: Principal
Capo 9

VERSE
G|--------------------------------------|
D|---2---2---2---2p0---0---0---0---0-h2-| 
A|-3---3---0---0-----2---2---2---2------|
E|--------------------------------------|
                                     
CHORUS
G|----------------------------------|
D|---2-2-2/5-5-5-0---4-4-0-2-2-2-0--|
A|-2---------------5----------------|
E|----------------------------------|

(when you turn the lights off)
G|----------------------------------|
D|-2-------5-------4-------2--------|
A|-2-------5-------5-------3--------|
E|----------------------------------|

BREAKDOWN

 (you're making me sick love...)
G|----------------------------------|
D|---22--22--22--20--00--00--00--00-|
A|-3---3---0---0---2---2---2---2----|
E|----------------------------------|
00:00 / 00:00
Outros vídeos desta música
Repetir
Outros vídeos desta música
Compositor não encontrado.
Colaboração e revisão:
  • Tita Cristina
2.404 exibições

0 comentários

Ver todos os comentários

Entre para oCifra Club PRO

Tenha acesso a benefícios exclusivos no App e no Site

  • Chega de anúncios

  • Prioridade de compra em lançamentos

  • Mais recursos no app do Afinador

  • Atendimento Prioritário

  • Descontos nos produtos Cifra Club

  • Ajude a produzir mais conteúdo

00:00 / 00:00

Cifra Club Pro

Aproveite o Cifra Club com benefícios exclusivos e sem anúncios
Cifra Club Pro
Aproveite o Cifra Club com benefícios exclusivos e sem anúncios
OK