Cifra Club

Pig

Dave Matthews Band

Cifra: Principal (violão e guitarra)
Selo Cifra Club: esta cifra foi revisada para atender aos critérios oficiais da nossa Equipe de Qualidade.
tom: Bm
Intro
Figure 1
E|----------------| -----------
B|----------------| -----------
G|-----4------4-4-| -(4)-------
D|---2------2---4-| -(4)-------
A|-------0------2-| -(2)-------
E|-0--------------| -----------

play Figure 1 - 3 more times

....oh, isn't it strange....


Verse 1

......how we move our lives....

play Figure 1 - 4 times

then

Figure 1 (Dave) - 7 times

with

Figure 2 - 7 times

Tim
E|---------------| ---------------
B|---------------| ---------------
G|---------------| ---------------
D|-------2--2--4-| --4--4---4--2--
A|-2-----4-----2-| --2--2---2-----
E|-4--4----------| ---------------

then

Dave
E|----------------| ---------------
B|----------------| ---------------
G|-----4------4-4-| -4--4----4-----
D|---2------2---4-| -4--4----4-----
A|-------0------2-| -2--2--2-2--0--
E|-0--------------| ---------------
Tim
E|----------------| --------0------
B|----------------| ------0--------
G|----------------| ---------------
D|-------2--2---4-| -(4)-----------
A|-2-----4------2-| -(2)-----------
E|-4-4------------| ---------------


Pre-Chorus

This love will open the world......

Figure 3
E|------------| ----------
B|-2---5------| ----------
G|-2---4------| ----------
D|-2---2------| -4--------
A|-0----------| -4--------
E|-----4----2-| -2--------

play Figure 3 - 2 more times

...Don't burn the day.....

E|------------|
B|------------|
G|------------|
D|-(4)--------|
A|-(4)--------|
E|-(2)--------|


play Figure 1 - 4 times

with

Tim
Figure 4 - 2 times
E|-----------------| ------ ------------------ -----0---
B|---------2-------| ------ -------------2---- ---0-----
G|---1-------4-2-4-| -(4)-- -----1-(2)-4---4-- ---------
D|-----4-2-------4-| -(4)-- ---4----2------4-- ---------
A|---------------2-| -(2)-- ---------------2-- ---------
E|-0---------------| ------ -0---------------- ---------


Verse 2

Is this not enough?.........

play Figure 1
with Figure 2 - 4 times

play Figure 1 - 4 times
with Figure 4 - 2 times


Pre-Chorus

Just love will open our eyes......

play Figure 3 - 3 times

...Don't burn the day.....

E|------------|
B|------------|
G|------------|
D|-(4)--------|
A|-(4)--------|
E|-(2)--------|

play Figure 1 - 3 times
with Figure 4 - 1 1/2 times
then


Dave
E|----------------3-| --3-------------2-
B|----------------3-| --3----2----2---3-
G|-----4-------4--0-| --0----2----2---4-
D|---2-------2----0-| --0----2----2---4-
A|---------0------2-| --2----0----0---2-
E|-0--------------3-| --3---------------
Tim
E|----------------3-| --3-------------2-
B|-----------2----3-| --3----2----2---3-
G|-----1---4---0--0-| --0----2----2---4-
D|---4---2--------0-| --0----2----2---4-
A|----------------2-| --2----0----0---2-
E|-0--------------3-| --3---------------


Chorus

....my brother, shake up your bones......

Figure 5

E|-2-----3--| --------- ---2---3-- ------2--
B|-3--3--3--| --2---3-- ---3---3-- --2---3--
G|-4--2--0--| --2---2-- ---4---0-- --2---4--
D|-4--0--0--| --2---0-- ---4---0-- --2---4--
A|-2-----2--| --0------ ---2---2-- --0---2--
E|----2--3--| ------2-- -------3-- ---------

play Figure 5 - 2 more times

E|-2-----3--| --------- ---2------
B|-3--3--3--| --2---3-- ---3------
G|-4--2--0--| --2---2-- ---4------
D|-4--0--0--| --2---0-- ---4------
A|-2-----2--| --0------ ---2------
E|----2--3--| ------2-- --------4-


Bridge

...Love......

Figure 6
E|-----| ----- ----- ------
B|-5---| -5--- -5--- -5----
G|-4---| -4--- -4--- -3----
D|-2---| -2--- -4--- -4----
A|-----| ----- ----- ------
E|-4---| -3--- -2--- -2--4-

play Figure 6 - 2 more times

E|-----| ----- -------- ----
B|-5---| -5--- -5----5- ----
G|-4---| -4--- -4----3- ----
D|-2---| -2--- -4----4- ----
A|-----| ----- -------- ----
E|-4---| -3--- -2----2- ----


play Figure 1 - 4 times
with Figure 4 - 2 times


Verse 3

Look here we are on this starry night.....

play Figure 1 - 4 times
with Figure 4 - 2 times


Pre-Chorus

What point could there be......

play Figure 3 - 8 times

...Don't burn the day.....

E|------------|
B|------------|
G|------------|
D|-(4)--------|
A|-(4)--------|
E|-(2)--------|


play Figure 1 - 3 times
with Figure 4 - 1 1/2 times

Dave
E|----------------3-| --3-------------2-
B|----------------3-| --3----2----2---3-
G|-----4-------4--0-| --0----2----2---4-
D|---2-------2----0-| --0----2----2---4-
A|---------0------2-| --2----0----0---2-
E|-0--------------3-| --3---------------
Tim
E|----------------3-| --3-------------2-
B|-----------2----3-| --3----2----2---3-
G|-----1---4---0--0-| --0----2----2---4-
D|---4---2--------0-| --0----2----2---4-
A|----------------2-| --2----0----0---2-
E|-0--------------3-| --3---------------


Chorus

....my brother, shake up your bones......

Figure 5

E|-2-----3--| --------- ---2---3-- ------2--
B|-3--3--3--| --2---3-- ---3---3-- --2---3--
G|-4--2--0--| --2---2-- ---4---0-- --2---4--
D|-4--0--0--| --2---0-- ---4---0-- --2---4--
A|-2-----2--| --0------ ---2---2-- --0---2--
E|----2--3--| ------2-- -------3-- ---------

play Figure 5 - 2 more times

E|-2-----3--| --------- ---2------
B|-3--3--3--| --2---3-- ---3------
G|-4--2--0--| --2---2-- ---4------
D|-4--0--0--| --2---0-- ---4------
A|-2-----2--| --0------ ---2------
E|----2--3--| ------2-- --------4-


Bridge

...Love......

Figure 6
E|-----| ----- ----- ------
B|-5---| -5--- -5--- -5----
G|-4---| -4--- -4--- -3----
D|-2---| -2--- -4--- -4----
A|-----| ----- ----- ------
E|-4---| -3--- -2--- -2--4-

play Figure 6 and fade



The End

Scott Taylor
School of Music
The Florida State University
AOL IM: tromba1B
"Eat, drink, and be merry, for tomorrow we shall die." - Epicurus
Outros vídeos desta música
    26 exibições
      • ½ Tom
      • Am
      • Bbm
      • Bm
      • Cm
      • C#m
      • Dm
      • Ebm
      • Em
      • Fm
      • F#m
      • Gm
      • G#m
    • Adicionar à lista

    Afinação da cifra

    Afinador online

      0 comentários

      Ver todos os comentários

      Entre para o Cifra Club PRO

      Tenha acesso a benefícios exclusivos no App e no Site

      • Chega de anúncios

      • Badges exclusivas

      • Mais recursos no app do Afinador

      • Atendimento Prioritário

      • Aumente seu limite de lista

      • Ajude a produzir mais conteúdo

      Cifra Club Pro

      Aproveite o Cifra Club com benefícios exclusivos e sem anúncios
      Cifra Club Pro
      Aproveite o Cifra Club com benefícios exclusivos e sem anúncios
      Ops (: Contenido disponible sólo en portugués.
      OK