Cifra Club

Aprenda

Lovers on the Sun

David Guetta

Cifra: Principal (violão e guitarra)
tom: D
     Bm              D       A
E|-----------------------------------
B|-----------------------------------
G|-----------------------------------
D|-------------------0-2---0---------
A|---2---2---2---2-4---------4-2-0---
E|-----2---2---2---------------------

Bm                                 D
Let's light it up, let's light it up
           A            Bm   D A
Until our hearts catch fire
Bm                             D
Then show the world a burning light
            A         Bm     D A
That never shined so bright
Bm                             D
We'll find a way, we'll find a way
             A
To keep the cold night
Bm                         D
From breaking in over the walls
          A    Bm
Onto the wild side
D           A    Bm   D A
The hunger satisfied

Bm             D
We're burning up
F#m                  E             Bm       D
We might as well be lovers on the sun, oh, oh
F#m                  E             Bm       D
We might as well be lovers on the sun, oh, oh
F#m                  E             Bm
We might as well be lovers on the sun

     Bm      A     D         A
E|-------------------------------------
B|-------------------------------------
G|-------------------------------------
D|-----------------0---0---0-2-4-2-0---
A|---2-2---2-4-0-4---4---4-----------4-
E|-------2-----------------------------

Bm                             D
We'll never know, we'll never know
               A        Bm   D A
What stands behind the door
Bm
But I got a feeling
            D                  A     Bm  D A
And it's a feeling it's worth dying for
Bm                                  D
Just close your eyes and hold your breath
            A
Because it feels right
Bm                             D               A     Bm
We'll keep it moving until we make it to the other side
D            A       Bm   D A
And let's enjoy the ride

Bm             D
We're burning up
F#m                  E             Bm       D
We might as well be lovers on the sun, oh, oh
F#m                  E             Bm
We might as well be lovers on the sun

     Bm      A     D         A
E|-------------------------------------
B|-------------------------------------
G|-------------------------------------
D|-----------------0---0---0-2-4-2-0---
A|---2-2---2-4-0-4---4---4-----------4-
E|-------2-----------------------------

Bm                                 D
Let's light it up, let's light it up
           A            Bm   D A
Until our hearts catch fire
Bm                             D
Then show the world a burning light
            A         G     F#m A Bm
That never shined so bright
Composição de David / Guetta / Sam Martim
Colaboração e revisão:
  • Ygor Carmo
70.074 exibições
    • ½ Tom
    • A
    • Bb
    • B
    • C
    • Db
    • D
    • Eb
    • E
    • F
    • F#
    • G
    • Ab
  • Adicionar à lista

    0 comentários

    Ver todos os comentários

    Conseguiu tocar?

    23 Tocaram 1 Ainda não

    Grave um vídeo tocando Lovers on the Sun e nos envie!

    00:00 / 00:00
    outros vídeos desta música
    repetir qualidade Automático
    Outros vídeos desta música
    00:00 / 00:00
    Automático

    Cifra Club Pro

    Aproveite o Cifra Club com benefícios exclusivos e sem anúncios
    Cifra Club Pro
    Aproveite o Cifra Club com benefícios exclusivos e sem anúncios
    OK