Cifra Club

Geração Que Dança

David Quinlan

Cifra: Principal
exibições 300.841
Tom: G
[Intro]  D  D  C  G
         D  D  C  G

[Riff de Intro]


E|-------------------------------------------------|
B|-------------------------------------------------|
G|-------------------------------------------------|
D|---------------------3~--------------------------|
A|-5-3-5--5-3-5--5-3-5-----------------------------|
E|-------------------------7-5-7--7-5-7--7-5-7--1~-|


E|-------------------------------------------------|
B|-------------------------------------------------|
G|-------------------------------------------------|
D|---------------------3~--------------------------|
A|-5-3-5--5-3-5--5-3-5-----------------------------|
E|-------------------------7-5-7--7-5-7--7-5-7--1~-|


   D
A Tua graça nos faz dançar         
     Bm
Com toda a força celebrar
      G                      D
Dançaremos gratos por teu amor

[Riff]

E|-----------------------------------|
B|-----------------------------------|
G|-------------------7---------------|
D|-------------------7---------------|
A|-0-2-3--3-2-0------5---------------|
E|--------------1~-------------------|


   D
A Tua glória nos faz cantar
     Bm
Por toda terra  te exaltar
      G                   D
Cantaremos glórias a ti, Senhor

      Em
É o transbordar
         D/F#
Por nos perdoar
        G
Por te conhecer
       Asus           A
Não podemos nos calar

   D
E seremos a geração que dança
     Em                           G
Por causa da tua misericórdia, ó Deus
                     D  [Riff 01]
Tua misericórdia, ó Deus
     D
E seremos a geração que canta
    Em                         G
E que celebra a Tua glória, ó Deus
                 D
A Tua glória, ó Deus

0 comentários

    mostrar mais comentários

    Conseguiu tocar?

    15tocaram0ainda não

    Grave um vídeo tocando Geração Que Dança e mande pra gente!

    00:00 / 00:00
    outros vídeos desta música
    repetirqualidadeautomática
    Outro vídeos desta música
      00:00 / 00:00
      automática
      OK