Cifra Club

Chega Mais Cedo

Dazaranha

Cifra: Principal (violão e guitarra)
tom: G
[Intro] Em  Bm  Em  Bm
        Am  Bm  Em  Bm

E|---------------------------------------------|
B|--8--10--12--8--10--10--8/7------------------|
G|-----------------------------9--7--9---------|
D|---------------------------------------------|
A|---------------------------------------------|
E|---------------------------------------------|

E|-------------10------------------------------|
B|--8--10--12------10--10--8/7-----------------|
G|------------------------------9--7--9--------|
D|---------------------------------------------|
A|---------------------------------------------|
E|---------------------------------------------|

E|--10--12--15--12--14--14--12/10------10--12--|
B|---------------------------------12----------|
G|---------------------------------------------|
D|---------------------------------------------|
A|---------------------------------------------|
E|---------------------------------------------|

E|--15--14-------------------------------------|
B|----------15---------------------------------|
G|--------------14/12/11-----------------------|
D|------------------------12-------------------|
A|----------------------------12/10/9----------|
E|-------------------------------------12--10--|

[Primeira Parte]

Em          Bm
Chega mais cedo
Em       Bm
Botei o vinho pra gelar
Em       Bm           Am  D
Botei a roupa mais bonita
     Em  Bm
Surpresa

Em             Bm
Se apagares a luz
Em            Bm
E o silêncio falar
Em         Bm                 Am         D
Até os sentidos deixarem a razão fora do ar
    Em  Bm   Em
Eu sei, eu sei

Vens de planeta
         Am
Eu de satélite
   D           Em
Orbitando em ti
          Bm         Am  D
És minha pista de voo, meu trampolim

[Pré-Refrão]

Em              Bm
És mais bonita que eu
Em
Tens mais dinheiro
 Bm
Lestes mais livros
Em       Bm          Am          D
Vivo da vida e tiro dela pra te dar

[Refrão]

    Em   Bm             Em
Prazer, misturado com amor
   Bm               Am
E nada pode ser melhor
 D               Em      Bm
Nada pode ser melhor, melhor
    Em   Bm             Em
Prazer, misturado com amor
   Bm               Am
E nada pode ser melhor
 D               Em      Bm
Nada pode ser melhor, melhor
00:00 / 00:00
Outros vídeos desta música
Repetir
Outros vídeos desta música
Composição de Chico Martins / Moriel Costa
Colaboração e revisão:
25.390 exibições
    • ½ Tom
    • A
    • Bb
    • B
    • C
    • Db
    • D
    • Eb
    • E
    • F
    • F#
    • G
    • Ab
  • Adicionar à lista

    0 comentários

    Ver todos os comentários

    Conseguiu tocar?

    4 Tocaram 0 Ainda não

    Grave um vídeo tocando Chega Mais Cedo e nos envie!

    Entre para oCifra Club PRO

    Tenha acesso a benefícios exclusivos no App e no Site

    • Chega de anúncios

    • Prioridade de compra em lançamentos

    • Mais recursos no app do Afinador

    • Atendimento Prioritário

    • Descontos nos produtos Cifra Club

    • Ajude a produzir mais conteúdo

    00:00 / 00:00

    Cifra Club Pro

    Aproveite o Cifra Club com benefícios exclusivos e sem anúncios
    Cifra Club Pro
    Aproveite o Cifra Club com benefícios exclusivos e sem anúncios
    OK