Cifra Club

Aprenda

AD Infinittum

Dead Fish

Cifra: Principal (violão e guitarra)
Tom: D
Obs.: Eu so não coloquei o numero  de batidas em uma corda, mas isso
      da pra se pegar de ouvido! vlw aew
Intro: 
Phillipe faz o riff 2x: 
e|-----------------------------------
B|-12-12-12--7-7-7-8-8-8-10-10-10----
G|-xx-xx-xx--x-x-x-x-x-x-xx-xx-xx----
D|--9--9--9--4-4-4-5-5-5--7--7--7----
A|-----------------------------------
E|-----------------------------------
 
Enquanto Hóspede faz isso 2x tb: 
e|-------------------------------------------------------------------
B|-------------------------------------------------------------------
G|-4x4x4x4x4x4x4x----------------------------------------------------
D|---------------4x4x4x4x4x4x4x-5x5x5x5x5x5x5x-7x7x7x7x7x7x7x--------
A|-------------------------------------------------------------------
E|-------------------------------------------------------------------
 
Depois o Phillipe toca isso abafado:
e|--------------
B|--------------
G|--4-----------
D|--4--4--5--7--
A|--2--4--5--7--
E|-----2--3--5--

Enquanto o Hóspede sola:
e|-------|--------------------------------------------------------------------------------
B|-------|---------10-10-----------10-10----------10-10---------10-10---------10-10-------
G|----7--|-----7-7-------7-----7-7-------7----7-7-------7-----7-------7-----7-------7-----
D|----9--|-9-9-------------9-9-------------9-9------------9-9-----------9-9---------------
A|----9--|--------------------------------------------------------------------------------
E|-------|--------------------------------------------------------------------------------
cont. intro
e|---------------------------------------------------
B|-------10-10---------10-10---------10-10-----------
G|-----7-------7-----7-------7-----7-----------------
D|-9-9-----------9-9-----------9-9-------------------
A|---------------------------------------------------
E|---------------------------------------------------

verso
e|----------------------------------------
B|----------------------------------------
G|--4-----------4/11--6/9--4/11--6/9------
D|--4--4--5--7--x-x---x-x--x-x---x-x------
A|--2--4--5--7--2/9---4/7--2/9---4/7------
E|-----2--3--5----------------------------

pré-refrão (2x)
e|--------------------------------------
B|--------------------------------------
G|--44-44----/11-11---------/11-11------
D|--44-44-55--x--x------55---x--x------- (2x)
A|--22-22-55-/9--9------55--/9--9-------
E|--------33------------33--------------

refrão
e|-------------------------------------------
B|-------------------------------------------
G|--7-/-6-/-9------11/-9-/-7-/-6------11/-6--
D|--x---x---x------x---x---x---x------x---x--
A|--5-/-4-/-7------9-/-7-/-5-/-4------9-/-4--
E|-------------------------------------------

(repete)
intro
verso
pre-refão
refrão

final
e|--------------------------------------------
B|--------------------------------------------
G|--------------------------------------------
D|--4/5/44--4/5/44--4/5/44--4/5/4--777--9~----
A|--4/5/44--4/5/44--4/5/44--4/5/4--777--9~----
E|--2/3/22--2/3/22--2/3/22--2/3/2--555--7~----
Composição de Dead Fish
Colaboração e revisão:
  • Italo Santiago
12.091 exibições
    • ½ Tom
    • A
    • Bb
    • B
    • C
    • Db
    • D
    • Eb
    • E
    • F
    • F#
    • G
    • Ab
  • Adicionar à lista

    0 comentários

    Mostrar mais comentários

    Conseguiu tocar?

    0 Tocaram 0 Ainda não

    Grave um vídeo tocando AD Infinittum e mande pra gente!

    00:00 / 00:00
    outros vídeos desta música
    repetir qualidade Automático
    Outros vídeos desta música
    00:00 / 00:00
    Automático

    Cifra Club Pro

    Aproveite o Cifra Club com benefícios exclusivos e sem anúncios
    Cifra Club Pro
    Aproveite o Cifra Club com benefícios exclusivos e sem anúncios
    OK