Cifra Club

Aprenda

Bem Vindo Ao Clube

Dead Fish

Cifra: Principal (violão e guitarra)
Tom: E
==== RIFF 1 ====

e||--0-0-0--0-0-0--00-00-00--0-0-0-0-0--||
B||--5-5-5--4-4-4--12-12-12--9-9-9-9-9--||
G||-------------------------------------||     ( 4 VEZES )
D||-------------------------------------||
A||-------------------------------------||
E||-------------------------------------||


==== RIFF 2 ====    x = ABAFADO
                
                 2 VEZES                                  CONTINUAÇÃO  RIFF 2 
e||-----------------------------------------|--------------------------------------------------||
B||-----------------------------------------|--------------------------------------------------||
G||-----------------999x--6-6-6-6-6-6--999x-|------------9-9-9-9-9--7-7-7-7-7--9-9-9-9-9-------||
D||--7-7-7-7-7-7-7--999x--6-6-6-6-6-6--999x-|-7-7-7-7-7--9-9-9-9-9--7-7-7-7-7--9-9-9-9-9---9\--||
A||--7-7-7-7-7-7-7--777x--4-4-4-4-4-4--777x-|-7-7-7-7-7--7-7-7-7-7--7-7-7-7-7--7-7-7-7-7---9\--||
E||--5-5-5-5-5-5-5--------------------------|-5-5-5-5-5-------------5-5-5-5-5--------------7\--||

==== SOLO 1 ====      Depois q o riff termina pela 2ª vez a parte 1 entra o solinho
||-----------------------------------------------------------||
||-----------------------------------------------------------||
||--11-11-13-9-11-11-13-9---6-6-8-9~-6-6-8-9~-----9...-13-9--||
||-----------------------------------------------------------||
||-----------------------------------------------------------||
||-----------------------------------------------------------||

==== RIFF 3 ====
          4 VEZES                        CONTINUAÇÃO RIFF 3
e||-------------------|-----------------------------------------------------------||
B||-------------------|-----------------------------------------------------------||
G||--6-6-6-6-6-6-6/7--|----------------6-6-6-6-6-6-6-----------------9-9-9-9-9-9--||
D||--6-6-6-6-6-6-6/7--|-7-7-7-7-7-7-7--6-6-6-6-6-6-6--7-7-7-7-7-7-7--9-9-9-9-9-9--||
A||--4-4-4-4-4-4-4/5--|-7-7-7-7-7-7-7--4-4-4-4-4-4-4--7-7-7-7-7-7-7--7-7-7-7-7-7--||
E||-------------------|-5-5-5-5-5-5-5-----------------5-5-5-5-5-5-5---------------||

==== RIFF 4 ====  REFRÃO

e||-------------------------------------------------------------------------||
B||-------------------------------------------------------------------------||
G||--6-6-6-6-6-6-6-6----9-9-9-9-9-9-9---------------------------------------||
D||--6-6-6-6-6-6-6-6----9-9-9-9-9-9-9----4-4-4-4-4-4-4-4---7-7-7-7-7-7-7-7--||
A||--4-4-4-4-4-4-4-4----7-7-7-7-7-7-7----4-4-4-4-4-4-4-4---7-7-7-7-7-7-7-7--||
E||--------------------------------------2-2-2-2-2-2-2-2---5-5-5-5-5-5-5-5--||

RIFF 5
e||-----------------------------------------||
B||-----------------------------------------||
G||-4-4--4-4--4-4--4-4--2-2--2-2--2-2--2-2--||
D||-4-4--4-4--4-4--4-4--2-2--2-2--2-2--2-2--||
A||-2-2--2-2--2-2--2-2--0-0--0-0--0-0--0-0--||
E||-----------------------------------------||

RIFF 6
e||-----------------------------------------4-||
B||-----------------------------------------v-||
G||---------------------2-2--2-2--2-2--2-2--e-||
D||-4-4--4-4--4-4--4-4--2-2--2-2--2-2--2-2--z-||
A||-4-4--4-4--4-4--4-4--0-0--0-0--0-0--0-0--e-||
E||-2-2--2-2--2-2--2-2----------------------s-||

RIFF 7
e||-0-0-0-0-0-0-0-0-0-0-0-0-0-0-||
B||-4-4-4-4-4-4-4-4-4-4-4-4-4-4-||
G||-----------------------------||
D||-----------------------------||
A||-----------------------------||
E||-----------------------------||

----------------------------------------------------------------------------------------------------

haverá                             :
mais um retorno a partir daqui     :
não era o que queriamos            :      (RIFF 1)
tudo vai ruir                      :

Riff 2 =  A, E, C#m, E - (2 X),    A, E, A, E  + SOLO 1

pensei;                            :(UMA BATIDA NO "B" ANTES DE "PENSEI", DPOIS SÓ SEGUE A BATERIA)
não existir nada além daqui        :
me tornei;                         :(UMA BATIDA NO "B" DPOIS DE "ALÉM DAQUI", DPOIS SÓ A BATERIA)
estável sem estar bem              :

C#m
pensava em engordar e envelhecer   :(AQUI COMEÇA O RIFF 3)
                           A
quando nos encontramos em nós      :(EM "EM NÓS" JÁ COMEÇA A CONTINUAÇÃO DO RIFF 3)
   C#m
em vida                            :             ( CONTINUAÇÃO RIFF 3 )
   A
viver                              :             ( CONTINUAÇÃO RIFF 3 )
  E
aqui                               :             ( CONTINUAÇÃO RIFF 3 )


sentirei;                               :(A BATIDA NO "B" NO MEIO DA PALAVRA "SENTIREI")
falta de todos vocês                    :(A BATIDA NO "B" EM DE "VOCÊS")
sabiamos que tudo tem um fim            :(NO FIM DESSA FRASE COMEÇA O RIFF 3)
                                        :
seremos homens melhores onde estivermos : RIFF 3
o mundo é que está errado               : RIFF 3

                        == UMA PAUSA ==
==== REFRÃO ====

C#m, E

    F#m        A        :
bem vindo ao clube      :
C#m    E                :
celebrar o fim          :
  F#m    A              :
seja feliz              :
C#m            E        :
bem vindo ao clube      : (ESSA PARTE TODA É O RIFF 4)
   F#m       A          :
é tudo e é agora        :
C#m          E          :
toda intensidade        :
    F#m     A           :
que sempre quis         :


B, A                 B               :
   e o mundo já foi salvo            :
      A         B                    :
   e tudo já mudou                   :
   A              B                  :     ( RIFF 5 )
   o que mais por vir?               :
   A                                 :
   vivos, nos resta viver            :


==== RIFF 1 ====    4 VEZES

F#m                 A                            :
sim minha vida é maior que nós                   :
F#m                    A                         :
o que me importa se já tenho você e a mim        :
F#m                  A                           :     ( RIFF 6 )
se não podemos estar juntos e parar              :
F#m                      A                       :
me sentarei sozinho e farei um brinde a vocês    :


                            ==== RIFF 7 ====

==== REFRÃO ====

C#m, E

    F#m        A        :
bem vindo ao clube      :
C#m    E                :
celebrar o fim          :
  F#m    A              :
seja feliz              :
C#m            E        :
bem vindo ao clube      : (ESSA PARTE TODA É O RIFF 4)
   F#m       A          :
é tudo e é agora        :
C#m          E          :
toda intensidade        :
    F#m     A           :
que sempre quis         :
       
C#m, E

F#m      A
tudo que quis   = 2 VEZES = ACOMPANHA O RIFF 1

C#m, E, F#m, A = 1 Vezes mais riff 1


TERMINA C#m
Composição de Dead Fish
Colaboração e revisão:
  • Thiago Fernandes
  • paulo yamashiro
  • Natália
101.023 exibições
    • ½ Tom
    • A
    • Bb
    • B
    • C
    • Db
    • D
    • Eb
    • E
    • F
    • F#
    • G
    • Ab
  • Adicionar à lista

    0 comentários

    Mostrar mais comentários

    Conseguiu tocar?

    2 Tocaram 0 Ainda não

    Grave um vídeo tocando Bem Vindo Ao Clube e mande pra gente!

    00:00 / 00:00
    outros vídeos desta música
    repetir qualidade Automático
    Outros vídeos desta música
    00:00 / 00:00
    Automático

    Cifra Club Pro

    Aproveite o Cifra Club com benefícios exclusivos e sem anúncios
    Cifra Club Pro
    Aproveite o Cifra Club com benefícios exclusivos e sem anúncios
    OK