Cifra Club

Aprenda

Cidadão Padrão

Dead Fish

Cifra: Principal (violão e guitarra)
Tom: C
# intro #A&B 2X
E------------------------------------------------|
B------------------------------------------------|
G-------4-5-5-4-5-5-----------4-5-5-4-5-5--------|
D---7-7-4-5-5-4-5-5-5-5-5-7-7-4-5-5-4-5-5-5%-----|
A---7-7-2-3-3-2-3-3-5-5-5-7-7-2-3-3-2-3-3-5%-----|
E---5-5-------------3-3-3-5-5-------------3%-----|

# verse #A&B 2X *=play 3X  #verse2 A&B 2X *=play 3X with some palm-muting
E-------------------------|----------------------|
B--------*-------*--------|--------*-------*-----|
G----*--5----*--7---------|----*--5----*--7------|
D---7---5---5---7---------|---7---5---5---7------|
A---7---3---5---5---------|---7---3---5---5------|
E---5-------3-------------|---5-------3----------|

# verse3 #A 2X *=play 3X #=play 16X with hard palm-muting
E-----------------------------------|
B--------*-------*------------------|
G----*--5----*--7----#--------------| <<<=pick-slide
D---3---5---5---7---7---------------|
A---3---3---5---5---7---------------|
E---1-------3-------5--<<<<<<-------|

# verse3 #B 2X *=play 3X #=play 16X with hard palm-muting
E-----------------------------------|
B--------*-------*------------------|
G----*--5----*--7----#--------------| 
D---3---5---5---7---7---------------|
A---3---3---5---5---7---------------|
E---1-------3-------5---------------|

# end-verse3 #A&B
E----------------------------|
B----------------------------|  then play intro 2X
G----*---*---*---*---*---*---|            verse 2X
D---3---5---7---5---3---5----|            verse2 2X     
A---3---5---7---5---3---5----|            verse3 2X
E---1---3---5---3---1---3----|            end-verse3

# bridge #A&B 4X m=palm-muting  # bridge2 #B *=play 8X #=play 4X
E---------------------------------|---------------------------------------|
B---------------------------------|--/-----------palm-muting-----------\--|
G---m-m-m-m-----m-m-m-m-----------|---*--#--#-----------*--#--#-----------|
D---7-7-7-7--7--7-7-3-3--3--55----|--7--3--5---*--#--#-7--3--5---*--#--#--|
A---7-7-7-7--7--7-7-3-3--3--55----|--7--3--5--7--3--5--7--3--5--7--3--5---|
E---5-5-5-5--5--5-5-1-1--1--33----|--5--1--3-----------5--1--3------------|

# bridge #A 4X *=play 8x #=play 4X
E--------------------|
B-/-palm-muting-\----|
G----*--#--#---------|
D---7--3--5----------|
A---7--3--5----------|
E---5--1--3----------|

# end #A v=vibrato
E-----------------------------------------------------------------------|
B-----------------------------------------------------------------------|
G---------------------5-----5--8v----7--5-------------------------------|
D---------------5--7-----7-----------------7--5--7--5-------------------|
A------3--5--7-----------------------------------------7--5--3----------|
E---5-----------------------------------------------------------5\------|

# end1 #A 4X *=play 8X #=play 4X
E---------------|-----------|
B---------------|--#-final--|
G----*--#--#----|-----------|
D---7--3--5-----|--7--------|
A---7--3--5-----|--7--------|
E---5--1--3-----|--5--------|

# end #B 4X XX=left-hand mute # final
E----------------------------|-------|
B---55XX5-5-66-55XX5-5-88----|---5---|
G---55XX5-5-55-55XX5-5-55----|---5---|
D----------------------------|-------|
A----------------------------|-------|
E----------------------------|-------|
Composição de Dead Fish
Colaboração e revisão:
  • José Junior
9.264 exibições
    • ½ Tom
    • A
    • Bb
    • B
    • C
    • Db
    • D
    • Eb
    • E
    • F
    • F#
    • G
    • Ab
  • Adicionar à lista

    0 comentários

    Mostrar mais comentários

    Conseguiu tocar?

    0 Tocaram 0 Ainda não

    Grave um vídeo tocando Cidadão Padrão e mande pra gente!

    00:00 / 00:00
    outros vídeos desta música
    repetir qualidade Automático
    Outros vídeos desta música
    00:00 / 00:00
    Automático

    Cifra Club Pro

    Aproveite o Cifra Club com benefícios exclusivos e sem anúncios
    Cifra Club Pro
    Aproveite o Cifra Club com benefícios exclusivos e sem anúncios
    OK