Cifra Club

Aprenda

Contra Todos (intro)

Dead Fish

Cifra: Principal (violão e guitarra)
Tom: G
       Bm5           D#m5      F#m5         D#m5
e|-----------------------------------------------------------
B|-----------------------------------------------------------
G|--4-4-4-4-4-4-46/8-8-8-8/11-11-11-11/8-8-8-8-8-8-8-8-8/9/8-
D|--6-6-6-6-6-6-6-/6-6-6-6/9--9--9--9/-6-6-6-6-6-6-6-6------- (1x)
A|-----------------------------------------------------------
E|-----------------------------------------------------------

       Bm5           D#m5      F#m5         D#m5
e|-------------------------------------------------------6-----6---|
B|-----------------------------------------------------------------|
G|--4-4-4-4-4-4-4/8-8-8-8/11-11-11-11/8-8-8-8-8-8-8-8-8-8--8-8---8-|  (1x)
D|--6-6-6-6-6-6-6/6-6-6-6/9--9--9--9-/6-6-6-6-6-6-6-6--------------|
A|-----------------------------------------------------------------|
E|-----------------------------------------------------------------|
Colaboração e revisão:
  • mauricio souza
3.410 exibições
    • ½ Tom
    • A
    • Bb
    • B
    • C
    • Db
    • D
    • Eb
    • E
    • F
    • F#
    • G
    • Ab
  • Adicionar à lista

    0 comentários

    Mostrar mais comentários

    Conseguiu tocar?

    0 Tocaram 0 Ainda não

    Grave um vídeo tocando Contra Todos (intro) e mande pra gente!

    00:00 / 00:00
    outros vídeos desta música
    repetir qualidade Automático
    Outros vídeos desta música
    00:00 / 00:00
    Automático

    Cifra Club Pro

    Aproveite o Cifra Club com benefícios exclusivos e sem anúncios
    Cifra Club Pro
    Aproveite o Cifra Club com benefícios exclusivos e sem anúncios
    OK