Cifra Club

Aprenda

Me Ensina

Dead Fish

Cifra: Principal (violão e guitarra)
Tom: E
Riff 1
Guitarra #1
e|---------------------|
B|-----4---4h5p4---4---|
G|---4---4-------4-----| 
D|---------------------|
A|---------------------|
E|---------------------|

Riff 2 (abafado)
Guitarra #1
e|--------------------------------------------------7---7---7---7--|
B|----4---4h5p4---4----4---4h5p4---7----4---4h5p4-----7---7---7---7|
G|--4---4-------4----4---4-------4----4---4-------4----------------| 
D|-----------------------------------------------------------------|
A|-----------------------------------------------------------------|
E|-----------------------------------------------------------------|


Intro:B A  2x (riff 1 8x)

(B|-A) (Abafado) - (riff 2 2x)
Preciso acordar e não me notar,
preciso vencer sem sequer ganhar,
preciso precisar sem sequer ter.

(B|-A) - (Riff 1 8x)
Eu quero ser e não perceber,
vou te amar e não te ter,
entender sem estudar.


Refrão

Guitarra #1
e|------------------------------------|
B|-----*-*----------------------------|
G|-4/6-6-6-6-4-2-2-2-2---------4-2-2-2| 4x
D|-4/6-6-6-6-4-2-2-2-2-4-4-4-4-4-2-2-2| (2x durante o refrao e 2x depois)
A|-2/4-4-4-4-2-0-0-0-0-4-4-4-4-2-0-0-0|
E|---------------------2-2-2-2--------|

Guitarra #2                                           
E|-------------------------------------------------------|
B|-------------------------------------------------------|
G|-4/6-----6-4-2-2-2-2-2-2-2-2---------4-2-2-2-2-2-2-2-2-|
D|-4/6-----6-4-2-2-2-2-2-2-2-2-4-4-4-4-4-2-2-2-2-2-2-2-2-|
A|-2/4-x-x-4-2-0-0-0-0-0-0-0-0-4-4-4-4-2-0-0-0-0-0-0-0-0-|
E|-----------------------------2-2-2-2-------------------|

E|---------------------------------------------------------------|
B|---------------------------------------------------------------|
G|-4/6-----6-8-9-9-9-9-9-9-9-9-11-11-11-11/13/11-9-9-9-9-x-x-9-9-|
D|---------------------------------------------------------------|
A|-2/4-x-x-4-6-7-7-7-7-7-7-7-7--9--9--9--9/11/9--7-7-7-7-x-x-7-7-|
E|---------------------------------------------------------------|

E|------------------------------------------------------------------------|
B|------------------------------------------------------------------------|
G|--11/13-----13-11-9-9-9-9-9-9-9-9----------16---------------------------|
D|------------------------------------------------------------------------| 2x
A|--9/-11-x-x-11--9-7-7-7-7-7-7-7-7-14-14-x-x--14-11-11-11-11-11-11-11-11-|
E|------------------------------------------------------------------------|

Me ensina a tirar essas marcas e encontrar ...
o meu verdadeiro...
me ensina.

(B|-A) - (riff 1 8x)
Vou te olhar de frente então,
enfrentar a contradição,
sem minha máscara vou sorrir.

(B|-A)(Abafado) - (riff 2 2x)
Marcas de uma educação, 
ranços de uma herança que se vão, 
o poder de observar...

(B|-A) - (riff 1 8x)
Observar e não ter poder, 
um verbo que devo calar , 
as palavras que você não vai ler...

Refrão

Me ensina a tirar essas marcas e encontrar ...
o meu verdadeiro...
me ensina.

Ponte
e|--------------------------------------------------------------0~-|
B|--------------------------------------------------------------0~-|
G|--------------------------------------------------------------1~-|
D|-4-4-4-x-x-4-4-4-x-x-7-7-7-x-x-7-7-7-x-x-4-4-4-x-x-4-4-4--2~--2~-|  2x
A|-4-4-4-x-x-4-4-4-x-x-7-7-7-x-x-7-7-7-x-x-4-4-4-x-x-4-4-4--2~--2~-|
E|-2-2-2-x-x-2-2-2-x-x-5-5-5-x-x-5-5-5-x-x-2-2-2-x-x-2-2-2--0~--0~-|

E agora amor,
vou poder ser feliz , 
esqueci teu nome. 
seremos eu de verdade, 
esqueci meu nome.

(B|-A) - (riff 1 8x)
E aprenderemos diariamente a desaprender 
e a viver como realmente somos.

(B|-A) - (riff 1 8x) - termina
Composição de Dead Fish
Colaboração e revisão:
  • Alexandro Valentim
21.001 exibições
    • ½ Tom
    • A
    • Bb
    • B
    • C
    • Db
    • D
    • Eb
    • E
    • F
    • F#
    • G
    • Ab
  • Adicionar à lista

    0 comentários

    Mostrar mais comentários

    Conseguiu tocar?

    0 Tocaram 0 Ainda não

    Grave um vídeo tocando Me Ensina e mande pra gente!

    00:00 / 00:00
    outros vídeos desta música
    repetir qualidade Automático
    Outros vídeos desta música
    00:00 / 00:00
    Automático

    Cifra Club Pro

    Aproveite o Cifra Club com benefícios exclusivos e sem anúncios
    Cifra Club Pro
    Aproveite o Cifra Club com benefícios exclusivos e sem anúncios
    OK