Cifra Club

Aprenda

O Homem Nú

Dead Fish

Cifra: Principal (violão e guitarra)
Tom: D
e|------------|---------------------------------
B|------------|---------------------------------
G|------------|-------------7-7-7-7-------------
D|-4-x-4-x-4--|----4-4-4-4--7-7-7-7--7-7-7-5-5--
A|-4-x-4-x-4--|----4-4-4-4--5-5-5-5--7-7-7-5-5--
E|-2-x-2-x-2--|----2-2-2-2-----------5-5-5-3-3--
  \ Intro  /


.... Confrontos ......

e|-----------------------------------------------
B|-----------------------------------------------
G|-7-9-11-12-14-12---7-9-11-12-14-16-------------
D|-x-x-x--xx-xx-xx---x-x-xx-xx-xx-xx-------------
A|-5-7-9--10-12-10---5-7--9-10-12-14-------------
E|-----------------------------------------------

e|----------|----------
B|----------|----------
G|----/7/9--|---7---9--
D|-4-4/7/9--|-4-7-7-9--
A|-4-4/5/7--|-4-5-7-7--
E|-2-2/-----|-2---5----
             \ repete varias vazes ( Rapido )


Repete tudo de novo....

e|-----------------------
B|-----------------------
G|-----------------------
D|-4~---4---2---4/7---------
A|-4~-4---4---4-----------
E|-2~--------------------


Final

e|-----------------------
B|-----------------------
G|-----------------------
D|-4-x-4-x-4-x-4-x-4-x-4-
A|-4-x-4-x=4-x-4-x-4-x-4-
E|-2-x-2-x-2-x-2-x-2-x-2-
Colaboração e revisão:
  • Tiago Ferreira
8.283 exibições
    • ½ Tom
    • A
    • Bb
    • B
    • C
    • Db
    • D
    • Eb
    • E
    • F
    • F#
    • G
    • Ab
  • Adicionar à lista

    0 comentários

    Mostrar mais comentários

    Conseguiu tocar?

    0 Tocaram 0 Ainda não

    Grave um vídeo tocando O Homem Nú e mande pra gente!

    00:00 / 00:00
    outros vídeos desta música
    repetir qualidade Automático
    Outros vídeos desta música
    00:00 / 00:00
    Automático

    Cifra Club Pro

    Aproveite o Cifra Club com benefícios exclusivos e sem anúncios
    Cifra Club Pro
    Aproveite o Cifra Club com benefícios exclusivos e sem anúncios
    OK