Cifra Club

Aprenda

Tarde Demais

Dead Fish

Cifra: Principal (violão e guitarra)
Tom: D
INTRO

Guitarra #1

2x

e|-------------------------------------------|
B|-------------------------------------------|
G|-7-7-7-7-12-12-12-12-10-10-10-10-8-8-10-10-|
D|-x-x-x-x--x--x--x--x--x--x--x--x-x-x--x--x-|
A|-5-5-5-5-10-10-10-10--8--8--8--8-6-6--8--8-|
E|-------------------------------------------|


VERSO 1

Guitarra #1 e #2

D5 G5 A#5 C5  4x


PRÉ-REFRÃO

Guitarra #1 e #2

e|-------------------------------------|
B|-------------------------------------|
G|-7-7-5/7-7-7-5/7-7-7-5/7-7-7-5/7-7-7-|
D|-7-7-5/7-7-7-5/7-7-7-5/7-7-7-5/7-7-7-|
A|-5-5-3/5-5-5-3/5-5-5-3/5-5-5-3/5-5-5-|
E|-------------------------------------|


REFRÃO

Guitarra #1

e|-------------------------------------------------------------------|
B|----------------------------------------------------------****-----|
G|-7-7---3-3-3-3---------5-5-5-5---7-7---3-3-3-3---****-----5555-5-5-|
D|-7-7---3-3-3-3---3-3---5-5-5-5---7-7---3-3-3-3---3333-3-3-5555-5-5-|
A|-5-5---1-1-1-1---3-3---3-3-3-3---5-5---1-1-1-1---3333-3-3-3333-3-3-|
E|-----------------1-1-----------------------------1111-1-1----------|

e|-------------------------------------------------------------|
B|-------------------------------------------------------------|
G|-7-7---3-3-3-3---------5-5-5-5---7-7---3-3-3-3-----*-*-*-*-*-|
D|-7-7---3-3-3-3---3-3---5-5-5-5---7-7---3-3-3-3---3-3-3-3-3-3-|
A|-5-5---1-1-1-1---3-3---3-3-3-3---5-5---1-1-1-1---3-3-3-3-3-3-|
E|-----------------1-1-----------------------------1-1-1-1-1-1-|

Guitarra #2

e|-------------------------------------------------------------------|
B|----------------------------------------------------------****-----|
G|-7-7---3-3-3-3---------5-5-5-5---7-7---3-3-3-3---****-----5555-5-5-|
D|-7-7---3-3-3-3---3-3---5-5-5-5---7-7---3-3-3-3---3333-3-3-5555-5-5-|
A|-5-5---1-1-1-1---3-3---3-3-3-3---5-5---1-1-1-1---3333-3-3-3333-3-3-|
E|-----------------1-1-----------------------------1111-1-1----------|

e|-5h6-6-6-6-6-6-6-6-6-6-6-5-5-5-5h6-6-6-6-6-6-6-6-6-6-6-6-5-5-|
B|-6-6-6-6-6-6-6-6-6-6-6-6-6-6-6-6-6-6-6-6-6-6-6-6-6-6-6-6-6-6-|
G|-------------------------------------------------------------|
D|-------------------------------------------------------------|
A|-------------------------------------------------------------|
E|-------------------------------------------------------------|


Guitarra #1 faz a INTRO  2x
Guitarra #2 faz D5 G5 A#5 C5  2x


VERSO 2

Guitarra #1

e|---------------------|
B|---------------------|
G|-7~~~~ -5/7--7~~~~~~-|
D|-x----  x-x--x-------|
A|-5~~~~--3/5--5~~~~~~-|
E|---------------------|

Guitarra #2

e|---------------------|
B|---------------------|
G|-7~~~~~~-----7/9~~~~-|
D|-x-----------x-x-----|
A|-5~~~~~~-----5/7~~~~-|
E|---------------------|


Guitarra #1 e 2# faz VERSO 1  2X


PRÉ-REFRÃO

REFRÃO

Depois do Refrão, Guitarra #1 e #2 fazem G|-7-| e deixa soar até o INTERLUDE
                                         D|-x-|
                                         A|-5-|

INTERLUDE

Guitarra #1

                        (Aqui faz abafado)
e|-----------------------------------------------------------------|
B|-----------------------------------------------------------------|
G|-----------------------------------------------------------------|
D|-0-0-3-3-5-5-5-5-0-0-3-3-5-5-5-5-0-0-3-3-5-5-5-5-0-0-3-3-5-5-5-5-|
A|-----------------------------------------------------------------|
E|-----------------------------------------------------------------|

         (Aqui, faz sem o abafado e um pouco mais rápido)
e|-----------------------------------------------------------------|
B|-----------------------------------------------------------------|
G|-----------------------------------------------------------------|
D|-000-333-5555555-000-333-5553335-000-333-5555555-000333555000333-|
A|-----------------------------------------------------------------|
E|-----------------------------------------------------------------|


Guitarra #2

                           (Vai tocando conforme a letra)
e|----------------------------------------------------------------------------------|
B|----------------------------------------------------------------------------------|
G|-777777777----------------777777777777777777777777777--------------77777777777777-|
D|-xxxxxxxxx----------------xxxxxxxxxxxxxxxxxxxxxxxxxxx--------------xxxxxxxxxxxxxx-|
A|-555555555----------------555555555555555555555555555--------------55555555555555-|
E|----------------------------------------------------------------------------------|
   Street, Reffer e Noção De Nada. Bombas são brinquedos e talvez possam explodir


e|-5h6-6-6-6-6-6-6-6-6-6-6-5-5-5-5h6-6-6-6-6-6-6-6-6-6-6-6-5-5-5-5-----|
B|-6-6-6-6-6-6-6-6-6-6-6-6-6-6-6-6-6-6-6-6-6-6-6-6-6-6-6-6-6-6-6-6^~~~-|
G|---------------------------------------------------------------------|
D|---------------------------------------------------------------------|
A|---------------------------------------------------------------------|
E|---------------------------------------------------------------------|


FINAL

Guitarra #1 e #2

D5 G5 A#5 C5  4x  (nas 2 últimas, mais rápido)

e termina em A5
Colaboração e revisão:
  • Alan Elias
5.391 exibições
    • ½ Tom
    • A
    • Bb
    • B
    • C
    • Db
    • D
    • Eb
    • E
    • F
    • F#
    • G
    • Ab
  • Adicionar à lista

    0 comentários

    Mostrar mais comentários

    Conseguiu tocar?

    0 Tocaram 0 Ainda não

    Grave um vídeo tocando Tarde Demais e mande pra gente!

    00:00 / 00:00
    outros vídeos desta música
    repetir qualidade Automático
    Outros vídeos desta música
    00:00 / 00:00
    Automático

    Cifra Club Pro

    Aproveite o Cifra Club com benefícios exclusivos e sem anúncios
    Cifra Club Pro
    Aproveite o Cifra Club com benefícios exclusivos e sem anúncios
    OK