Cifra Club

Aprenda

A Room With A View

Death Angel

Cifra: -completa (violão e guitarra)
tom: G
Intro:

E|----------------------|---3--------3-|----||
B|o-1--1-x-x-0-1-0------|---3--------3-|---o||
G|--2--2-x-x-2-2-2-0----|---0-0------0-|----||
D|--2--2-x-x-2-2---0----|-----0--------|----||
a|o----------------2----|-----2--------|---o||
E|-----------------3----|-3---3----3---|-3--||

Refrão:

E|--^2------2-------|-^0--------0-----|---^1--------1---|
B|o-^3--3-----3---3-|-^3----3-----3---|-3-^3----3-----3-|
G|--^2----2-----2---|-^0------0-----0-|---^3------3-----|
D|--^0--------------|-^2--------------|---^3--3---------|
a|o-----------------|-^3--3-----------|---^1------------|
E|------------------|-----------------|---^1------------|

E|-------------------|----------0--(0)-(0)-----||
B|---3-^2----2---3p2p|=0------------0h==2-----o||
G|-3---^2------2-----|---2-(2)-(2)-(2)-(2)-----||
D|-----^2--2---------|------2--(2)-(2)-(2)-----||
A|-------------------|------------------------o||
E|-------------------|-------------------------||

2º final:

E|-^1------1-------|---------------*|
B|-^1--1-----1---1-|---------------*|  
G|-^2----2-----2---|---2-----------*|  
D|-^3--------------|-3-----3-------*|  
A|-^3--------------|-----3----3----*|
E|-^1--------------|----------1----*|

Solo Acústico:

E|---------------------------|----------------------------|-----------5-7S8-|
B|-------------------5-------|---------^5-----------------|-5---5-6-8-------|
G|-------------------5h7p5---|---------^5---5-7b9r5---5h7-|---7-------------|
D|---------------3h5-------7-|-----5h7----7---------7-----|-----------------|
A|-----------3h5-------------|-5-7------------------------|-----------------|
E|-1-1-1-3s5-----------------|----------------------------|-----------------|

E|-8S10-10S12-12----------12-13-15-13-12-|
B|---------------------13----------------|
G|------------------14-------------------|
D|---------------15----------------------|
A|---------------------------------------|
E|---------------------------------------|
              ^-----------^ 
     Sweep up, mute as notas, se possível

E|-12h15-12h15-12h15-12h15-10h12-10h12-10h12-10h12-|
B|-------------------------------------------------|
G|-------------------------------------------------|
D|-------------------------------------------------|
A|-------------------------------------------------|
E|-------------------------------------------------|

E|-8h10-8h10-8h10-8h10-7h8-7h8-7h8-7h8-7-8-5-7-|---5---------------------|
B|---------------------------------------------|-8---6-8-5-6---5---------|
G|---------------------------------------------|-------------7---5-7-5-4-|
D|---------------------------------------------|-------------------------|
A|---------------------------------------------|-------------------------|
E|---------------------------------------------|-------------------------|

E|-------------------------------------|-------------------------5---|
B|-------------------------------------|-----------------------5---5-|
G|-4-5-4---4-5-4---4-5-4---4-5-4-------|-------------5---5-7b9-------|
D|-------7-------7-------7-------7-----|---5---5h7-7---7-------------|
A|---------------------------------5h7-|-7---7-----------------------|
E|-------------------------------------|-----------------------------|

E|---5-8p5---8---------------------|-------------5h7-5--------|-----*|
B|-8-------8---8p5-8p5---5---------|--------------------------|-----*|
G|---------------------7---7p5-7b9r|=5-------7p5-5h7-5--------|-----*|
D|---------------------------------|---7-5h7------------------|-----*|
A|---------------------------------|--------------------------|-----*|
E|---------------------------------|--------------------------|-----*|

Parte distorcida
E|-----------------------|------------------|--------------------|---|
B|o----------------------|------------------|--------------------|---|
G|-----------------------|------------------|--------------------|---|
D|--5-x-x----------------|---------x-x-9-7--|-7--7-------------5-|-4-|
a|o-3-x-x-3-3--3s=7--7-7-|-7-7-7-7-x-x-7-5--|-5--5-x-x-3-3-x-x-3-|-2-|
E|--------1-1--1s=5--5-5-|-5-5-5-5----------|------x-x-1-1-x-x---|---|

E|---------------|-----------||
B|---------------|----------o||
G|---------------|-----------||
D|---------------|-----------||
A|-5s=7--7-7-7-7-|-7-7-7----o||
E|-3s=5--5-5-5-5-|-5-5-5-----||

E|---------------|--------------|
B|---------------|--------------|
G|---------------|--------------|
D|-5-4-----------|--------------|
A|-3-2-5s=7--7-7-|-7-7-7-7-7----|
E|-----3s=5--5-5-|-5-5-5-5-5----|
Composição de Rob Cavestany
Colaboração e revisão:
  • Jeferson L.
52 exibições
    • ½ Tom
    • A
    • Bb
    • B
    • C
    • Db
    • D
    • Eb
    • E
    • F
    • F#
    • G
    • Ab
  • Adicionar à lista

    0 comentários

    Ver todos os comentários

    Conseguiu tocar?

    0 Tocaram 0 Ainda não

    Grave um vídeo tocando A Room With A View e nos envie!

    00:00 / 00:00
    Outros vídeos desta música
    Repetir Qualidade Automático
    Outros vídeos desta música
    00:00 / 00:00
    Automático

    Cifra Club Pro

    Aproveite o Cifra Club com benefícios exclusivos e sem anúncios
    Cifra Club Pro
    Aproveite o Cifra Club com benefícios exclusivos e sem anúncios
    OK