Cifra Club

Aprenda

Humongous

Declan Mckenna

Cifra: Principal (violão e guitarra)
tom: C
 Dm          Fmaj7         C             G
Don't tag me along to your show, to your broadcast
 Am     F           Em
I know, I'm good at letting go
 Dm          Fmaj7             C              G  E7
Don't tag me along with your rules, with your promise
 Am               Em               F                   Em
I swear you spend too much time on your phone and your hair
           Dm
But do you care?

[Chorus]
 G       Am         Em
I'm big, humongous, enormous and small
             F  G    Am               Em
And it's not fair that I am nothing and nobody's there
       F
Do you care?

 G       Am      Em
I'm big, humongous, enormous and small
             F  G    Am               Em
And it's not fair that I am nothing and nobody's there
       
Do you care?

[Verse 2]
 Dm           Fmaj7    C                        G
Don't tell me I'm not, I'm not smart or I'm not worthy
 Am     Fmaj7               Em
I know, I couldn't let that go
 Dm              Fm7
And don't tag me along
         C                  G E7
ith your hate and with your envy
 Am      Em              Fm7      Em
I swear, to god I cannot take you anywhere
           Dm
But do you care?

[Chorus]
 G       Am         Em
I'm big, humongous, enormous and small
             F  G    Am               Em
And it's not fair that I am nothing and nobody's there
       F
Do you care?

 G       Am      Em
I'm big, humongous, enormous and small
             F  G    Am               Em
And it's not fair that I am nothing and nobody's there
       
Do you care?

[Solo]

  Dm        G              Am             Em
 
E|----------12--10--------------------------------|
B|----10-----------12-13-12s10-10-10s9-9-9s10-----|  
G|-12---------------------------------------------|
D|------------------------------------------------|
A|------------------------------------------------|
E|------------------------------------------------|

   F         G             Am     Em
E|-13-12-10---------------------------------------|  
B|-------------13-12-13-12-10s9-10-9--------------|  
G|------------------------------------------------|
D|------------------------------------------------|
A|------------------------------------------------|
E|------------------------------------------------|

  F         G              Am            Em
E|-----10-----------------------------------------|
B|-10------12-13-12-10s9-9--9s10------------------|  
G|------------------------------------------------|
D|------------------------------------------------|
A|------------------------------------------------|
E|------------------------------------------------|

  F         G              Am             Em
E|----13-12-10-----------------13-10--------------|
B|-10-----------12--13-12--10---------------------| 
G|------------------------------------------------|
D|------------------------------------------------|
A|------------------------------------------------|
E|------------------------------------------------|

       Dm
Do you care?

[Chorus]
 G       Am         Em
I'm big, humongous, enormous and small
             F  G    Am               Em
And it's not fair that I am nothing and nobody's there
       
Do you care?

[Riff]

Dm - G - Am - Em X2

       Dm
Do you care! 

[Riff]

Dm - G - Am - Em

Dm - G - Am


[Riff]

E|-------12-10--------------------------------12-10-------13--12-------|
B|----10-------13-12-12s10-----------------10-------13-12------- 12----|  
G|-10-----------------------12-12-10-9--10-----------------------------|
D|---------------------------------------------------------------------|
A|---------------------------------------------------------------------|
E|---------------------------------------------------------------------|

[Final Verse]

F             G          C   Bm     F
Don't speak, don't be so broken and weak
          G
I'm gonna throw up
C    Bm    F
Well baby, when will you grow up?
F           G       C   Bm   F
You've been such a joke this week
F
You think you're funny
F
When you're talking all loud and your nose is all runny


[Final Riff]

E|-------12-10--------------------------------12-10-------13--12-------|
B|----10-------13-12-12s10-----------------10-------13-12--------12----| 
G|-10-----------------------12-12-10-9--10-----------------------------|
D|---------------------------------------------------------------------|
A|---------------------------------------------------------------------|
E|---------------------------------------------------------------------|
Composição de Declan McKenna
Colaboração e revisão:
  • Caio Fernandes
557 exibições
    • ½ Tom
    • A
    • Bb
    • B
    • C
    • Db
    • D
    • Eb
    • E
    • F
    • F#
    • G
    • Ab
  • Adicionar à lista

    0 comentários

    Ver todos os comentários

    Conseguiu tocar?

    0 Tocaram 1 Ainda não

    Grave um vídeo tocando Humongous e nos envie!

    00:00 / 00:00
    Outros vídeos desta música
    Repetir Qualidade Automático
    Outros vídeos desta música
    00:00 / 00:00
    Automático

    Cifra Club Pro

    Aproveite o Cifra Club com benefícios exclusivos e sem anúncios
    Cifra Club Pro
    Aproveite o Cifra Club com benefícios exclusivos e sem anúncios
    OK