Cifra Club

Perfect Strangers

Deep Purple

Tab de baixo: Principal
exibições 2.481
Introdução 

Parte 01 de 01

G|----------------------------------------------|
D|----------------------------------------------|
A|-3h5-5-5-5--5-5-5--5-5-5--5-5-5--3h5----------|
E|----------------------------------------------|

G|----------------------------------------------|
D|----------------------------------------------|
A|---------------------------------1------------|
E|-1h3-3-3-3--3-3-3--3-3-3-3-3-1-3--------------|

Primeira parte 

Can you remember remember my name...

Parte 01 de 05

G|----------------------------------------------|
D|----------------------------------------------|
A|-3h5-5-5-5--5-5-5--5-5-5--5-5-5--3h5----------|
E|----------------------------------------------|

G|----------------------------------------------|
D|----------------------------------------------|
A|-------------------------------------1--------|
E|-1h3-3-3-3--3-3-3--3-3-3-3--1h3--1h3----------|

Parte 02 de 05

G|----------------------------------------------|
D|----------------------------------------------|
A|-3h5-5-5-5--5-5-5--5-5-5--5-5-5--3h5----------|
E|----------------------------------------------|

G|----------------------------------------------|
D|----------------------------------------------|
A|----------------------------------------------|
E|-1h3-3-3-3--3-3-3--3-3-3-3--3--1h3------------|

Parte 03 de 05

G|----------------------------------------------|
D|----------------------------------------------|
A|-----------------------------3----------------|
E|-3h5--5-5-5--5-5-5--5-5--3-5---5-3-5----------|

Parte 04 de 05 ( tocar 2x )

G|----------------------------------------------|
D|----------------------------------------------|
A|----------------------------3-----------------|
E|-5-5-5-5--5-5-5-5--5-5--3-5---5-3-5-----------|

Parte 05 de 05

G|----------------------------------------------|
D|----------------------------------------------|
A|----------------------------------------------|
E|-5-5-5-5--5-5-5-5--5-3h5-3h5-3h5-3------------|

Introdução 02

Parte 01 de 01

G|----------------------------------------------|
D|----------------------------------------------|
A|-3h5-5-5-5--5-5-5--5--5-5-5-5--3h5------------|
E|----------------------------------------------|

G|----------------------------------------------|
D|----------------------------------------------|
A|----------------------------------------------|
E|-1h3-3-3-3--3-3-3--3-3-3-0-3-3-3--1h3---------|

Segunda parte

I am returning the echo of a point in time...

Parte 01 de 05

G|----------------------------------------------|
D|----------------------------------------------|
A|-3h5-5-5-5--5-5-5--5---5-5-5-5--3h5-----------|
E|----------------------------------------------|

G|----------------------------------------------|
D|----------------------------------------------|
A|------------------------------1---------------|
E|-1h3-3-3-3--3-3-3--3-3-3--1h3---3-1-----------|

Parte 02 de 05

G|----------------------------------------------|
D|----------------------------------------------|
A|-3h5-5-5-5--5-5-5--5-5-5--5-5-5--3h5----------|
E|----------------------------------------------|

G|----------------------------------------------|
D|----------------------------------------------|
A|----------------------------------------------|
E|-1h3-3-3-3--3-3-3--3-3-3-3--3-3--1h3----------|

Parte 03 de 05

G|----------------------------------------------|
D|----------------------------------------------|
A|-----------------------------3----------------|
E|-3h5--5-5-5--5-5-5--5-5--3-5---5-3-5----------|

Parte 04 de 05 ( tocar 2x )

G|----------------------------------------------|
D|----------------------------------------------|
A|----------------------------3-----------------|
E|-5-5-5-5--5-5-5-5--5-5--3-5---5-3-5-----------|

Parte 05 de 05

G|----------------------------------------------|
D|----------------------------------------------|
A|----------------------------------------------|
E|-5-5-5-5--5-5-5-5--5-5-5-5--5-5-5-5-----------|

Refrão 

And if you hear me talking on the wind...

Parte 01 de 02

G|------------------------------------7---------|
D|---3------------------------------------------|
A|-------------0-2-3-3-3---3-----3-5----0-5-----|
E|-1---1-1-1-1-----------3---0-3------------0-1-|

Parte 02 de 02

G|----------------------------------------------|
D|----------------------------------------------|
A|-----------0-2-3-5-5-3-5-----0-3-3-2-3-3-2-0--|
E|-3-3-3-0-3---------------1-3------------------|

G|----------------------------------------------|
D|----5-----------------------------------------|
A|----------------------------------------------|
E|-3----3-3--3-3--3-3--3-3--3-3--3--------------|

Solo Instrumental

Parte 01 de 02 ( Tocar 3x )

G|----------------------------------------------|
D|---7-7---8-8--5-5---7-7--3-3--7-7--5-5--5-----|
A|-0-----0----------0---------------------------|
E|----------------------------------------------|

parte 02 de 02

I know I must remain inside this silent...

G|----------------------------------------------|
D|---7-7---8-8--5-5---7-7--3-3--7-7--5-5--3-3---|
A|-0-----0----------0---------------------------|
E|----------------------------------------------|

G|----------------------------------------------|
D|-2-2------------------------------------------|
A|------5-5--3-3-1------------------------------|
E|----------------------------------------------|

Terceira parte

A strand of silver hanging through the sky...

Parte 01 de 05

G|----------------------------------------------|
D|----------------------------------------------|
A|-3h5-5-5-5--5-5-5--5-5-5--5-5-5--3h5----------|
E|----------------------------------------------|

G|----------------------------------------------|
D|----------------------------------------------|
A|----------------------------------------------|
E|-1h3-3-3-3--3-3-3--3-3-3--3-3-3--1h3----------|

Parte 02 de 05

G|----------------------------------------------|
D|----------------------------------------------|
A|-3h5-5-5-5--5-5-5--5-5-5--5-5-5--3h5----------|
E|----------------------------------------------|

G|----------------------------------------------|
D|----------------------------------------------|
A|----------------------------------------------|
E|-1h3-3-3-3--3-3-3-3-3--1h3-3-3--1h3-----------|

Parte 03 de 05

G|----------------------------------------------|
D|----------------------------------------------|
A|-3h5-5-5-5--5-5-5--5-5-5--5-5-5--3h5----------|
E|----------------------------------------------|

G|----------------------------------------------|
D|----------------------------------------------|
A|----------------------------------------------|
E|-1h3-3-3-3--3-3-3--3-3-3-3--3-3--1h3----------|

G|----------------------------------------------|
D|----------------------------------------------|
A|-----------------------------3----------------|
E|-3h5--5-5-5--5-5-5--5-5--3-5---5-3-5----------|

Parte 04 de 05 ( tocar 2x )

G|----------------------------------------------|
D|----------------------------------------------|
A|----------------------------3-----------------|
E|-5-5-5-5--5-5-5-5--5-5--3-5---5-3-5-----------|

Parte 05 de 05

G|----------------------------------------------|
D|----------------------------------------------|
A|----------------------------------------------|
E|-5-5-5-5--5-5-5-5--5-5-5-5--5-5-5-5-----------|

Refrão 02

And if you hear me talking on the wind...

Parte 01 de 02

G|----------------------------------------------|
D|---3------------------------------------------|
A|-------------0-2-3-3-3-------3----5-5-5-5-----|
E|-1---1-1-1-1-----------0-1-3---5--------------|

G|----------------------------------------------|
D|----------------------------------------------|
A|-----0-5-----------------3----5-5-5-------0-2-|
E|-1-3-----3-3-3--3-3----5---5--------1-1-3-----|

G|----------------------------------------------|
D|----------------------------------------------|
A|-3-3-3--2-3-3-2-0-----------------------------|
E|----------------------------------------------|

Parte 02 de 02

G|----------------------------------------------|
D|-----5-----5-----5-----5-----5-----5-----5----|
A|----------------------------------------------|
E|-3-3---3-3---3-3---3-3---3-3---3-3---3-3------|

G|----------------------------------------------|
D|----------------------------------------------|
A|----------------------------------------------|
E|-3-3--3-3-------------------------------------|

Quarta parte Instrumental

Parte 01 de 03 ( tocar 3x )

G|----------------------------------------------|
D|----------------------------------------------|
A|---7-7---8-8--5-5----7-7--3-3--7-7--5-5--5----|
E|-0-----0-----------0--------------------------|

Parte 02 de 03

G|----------------------------------------------|
D|----------------------------------------------|
A|---7-7---8-8--5-5----7-7--3-3--7-7--5-5--3-3--|
E|-0-----0-----------0--------------------------|

G|----------------------------------------------|
D|----------------------------------------------|
A|-2-2------------------------------------------|
E|-----5-5--3-3--2------------------------------|

Parte 03 de 03 ( tocar 8x + fade out)

G|----------------------------------------------|
D|----------------------------------------------|
A|---7-7---8-8--5-5----7-7--3-3--7-7--5-5--5----|
E|-0-----0-----------0--------------------------|
Composição: Ian Gillan / Ritchie Blackmore / Roger GloverColaboração e revisão:
  • Reginaldo Costa

0 comentários

    mostrar mais comentários

    Conseguiu tocar?

    1tocaram0ainda não

    Grave um vídeo tocando Perfect Strangers e mande pra gente!

    00:00 / 00:00
    outros vídeos desta música
    repetirqualidadeautomática
    Outro vídeos desta música
      00:00 / 00:00
      automática
      Capítulos
      • Tocando a música
      • Apresentação / Equipamentos
      • Introdução
      • Primeira Parte - Parte 1 de 5
      • Primeira Parte - Parte 2 de 5
      • Primeira Parte - Parte 3 de 5
      • Primeira Parte - Parte 4 de 5
      • Primeira Parte - Parte 5 de 5
      • Dicas Introdução 2 - Segunda Parte
      • Introdução 2
      • Segunda Parte - Parte 1 de 5
      • Segunda Parte - Parte 2 de 5
      • Segunda Parte - Parte 3 de 5
      • Segunda Parte - Parte 4 de 5
      • Segunda Parte - Parte 5 de 5
      • Dicas Refrão e Instrumental
      • Refrão - Parte 1 de 2
      • Refrão - Parte 2 de 2
      • Instrumental - Parte 1 de 2
      • Instrumental - Parte 2 de 2
      • Dicas Terceira Parte e Refrão
      • Terceira Parte - Parte 1 de 5
      • Terceira Parte - Parte 2 de 5
      • Terceira Parte - Parte 3 de 5
      • Terceira Parte - Parte 4 de 5
      • Terceira Parte - Parte 5 de 5
      • Refrão 2 - Parte 1 de 2
      • Refrão 2 - Parte 2 de 2
      • Dicas Quarta Parte
      • Quarta Parte - Parte 1 de 3
      • Quarta Parte - Parte 2 de 3
      • Quarta Parte - Parte 3 de 3
      • Encerramento
      OK