Cifra Club

Run Riot

Def Leppard

Cifra: Principal (violão e guitarra)
tom: A
Intro:

   > > > p.m. --------------------------------------------|
E|--------------------------------------------------------|
B|----------------------5-5-5-5-5-5-5-5-------------------|
G|-2-2-2----------------4-4-4-4-4-4-4-4-4-4-4-4-4-4-4-4---|
D|-2-2-2--2-2-2-2-2-2-2-2-2-2-2-2-2-2-2-4-4-4-4-4-4-4-4---|
A|-0-0-0--0-0-0-0-0-0-0-----------------2-2-2-2-2-2-2-2---|
E|--------------------------------------------------------|
          {               Rhythm Figure 1
  --------------------------------------------------------|
E|--------------------------------------------------------|
B|------------------------10-----10-----10---10-----10----|
G|-7-7-7-7-77-7-7-6-4-2------9-7----9-7----9----9-7-------|
D|-7-7-7-7-77-7-7-6-4-2-----------------------------------|
A|-5-5-5-5-55-5-5-4-2-0-----------------------------------|
E|--------------------------------------------------------|
                      }   Guitar 2 Plays Rhythm Fig 1
E|-------------------------------------------|
B|-----10---10-----10-----10---10-----10-----|
G|-9-7----9----9-7----9-7----9----9-7----9-7-|
D|-------------------------------------------|
A|-------------------------------------------|
E|-------------------------------------------|

E|----------------------------------|
B|----------------------------------|
G|-2---------------4-------7----7-7-|
D|-2-------2-------4-------7----7-7-|
A|-0-------2-------2-------5----5-5-|
E|---------0------------------------|

E|------------------------------------------------------|
B|------------------------------------------------------|
G|-2---2-----2-----------------4---4-----4----7-7-7-7---|
D|-2---2-----2---2---2-----2---4---4-----4----7-7-7-7---|
A|-0---0-0-0-0-0-2---2-----2---2---2-2-2-2-2--5-5-5-5---|
E|---------------0---0-0-0-0-0--------------------------|

Refrão:
E|-------------3------------------------------3-|
B|-------------3---3--3-----------------------3-|
G|-------------0---2--2-----------------------0-|
D|-------------0---0--0-----------------------0-|
A|-------------2------------------------------2-|
E|-0----0-2--3-3-----------------0----0-2---3-3-|

Verso:
E|-----------------------------------|
B|--------------8-8-8-8-8-8-8-8-/-10-|
G|----2 Bars ---7-7-7-7-7-7-7-7-/-9--|
D|--|-------|---5-5-5-5-5-5-5-5-/-7--|
A|-----------------------------------|
E|-----------------------------------|

E|--------------3-3-3-3-2-2-2--------|
B|--------------3-3-3-3-3-3-3--5-3---|
G|----2 Bars----0-0-0-0-2-2-2--4-2---|
D|--|-------|-----------0-0-0--------|
A|-----------------------------------|
E|-----------------------------------|

E|-----------------------------------|
B|--------------8-8-8-8-8-8-8-8-/-10-|
G|----2 Bars ---7-7-7-7-7-7-7-7-/-9--|
D|--|-------|---5-5-5-5-5-5-5-5-/-7--|
A|-----------------------------------|
E|-----------------------------------|

E|--------------------------3---------|
B|--------------------------3---3--3--|
G|----2 Bars----------------0---2--2--|
D|--|-------|---------------0---0--0--|
A|--------------------------2---------|
E|--------------0----0-2--3-3---------|

Verso:
E|-----------------------------------|
B|--------------8-8-8-8-8-8-8-8-/-10-|
G|----2 Bars ---7-7-7-7-7-7-7-7-/-9--|
D|--|-------|---5-5-5-5-5-5-5-5-/-7--|
A|-----------------------------------|
E|-----------------------------------|

E|--------------3-3-3-3-2-2-2--------|
B|--------------3-3-3-3-3-3-3--5-3---|
G|----2 Bars----0-0-0-0-2-2-2--4-2---|
D|--|-------|-----------0-0-0--------|
A|-----------------------------------|
E|-----------------------------------|

E|-----------------------------------|
B|--------------8-8-8-8-8-8-8-8-/-10-|
G|----2 Bars ---7-7-7-7-7-7-7-7-/-9--|
D|--|-------|---5-5-5-5-5-5-5-5-/-7--|
A|-----------------------------------|
E|-----------------------------------|

E|--------------------|
B|--------------------|
G|----2 Bars----------|
D|--|-------|---------|
A|--------------------|
E|---------------3\n--|

E|-------------3-----------------------3--3-3-3----|
B|-------------3---3--3----------------3--3-3-3----|
G|-------------0---2--2----------------0--0-0-0----|
D|-------------0---0--0----------------0--0-0-0----|
A|-------------2-----------------------2--2-2-2----|
E|-0----0-2--3-3----------0----0-2---3-3--3-3-3----|

Refrão:
E|-----------------------------|
B|-----------------------------|
G|-----5--------------5--5--10-|
D|-----5--5--3--------5--5--10-|
A|-0-2-3--5--3----0-2-3--2--8--|
E|--------3--1-----------------| x3
                                                        >
E|--------------------------------------------------------|
B|--------------------------------------------------------|
G|-----5--------------5--5--10------10-9h10p9-7-9-7-5-0-2-|
D|-----5--5--3--------5--5--10------10-9h10p9-7-9-7-5-0-2-|
A|-0-2-3--5--3----0-2-3--2--8---------------------------0-|
E|--------3--1--------------------------------------------|

Verso:
E|-----------------------------------|
B|--------------8-8-8-8-8-8-8-8-/-10-|
G|----2 Bars ---7-7-7-7-7-7-7-7-/-9--|
D|--|-------|---5-5-5-5-5-5-5-5-/-7--|
A|-----------------------------------|
E|-----------------------------------|

E|--------------3-3-3-3-2-2-2--------|
B|--------------3-3-3-3-3-3-3--5-3---|
G|----2 Bars----0-0-0-0-2-2-2--4-2---|
D|--|-------|-----------0-0-0--------|
A|-----------------------------------|
E|-----------------------------------|

E|-----------------------------------|
B|--------------8-8-8-8-8-8-8-8-/-10-|
G|----2 Bars ---7-7-7-7-7-7-7-7-/-9--|
D|--|-------|---5-5-5-5-5-5-5-5-/-7--|
A|-----------------------------------|
E|-----------------------------------|

E|--------------------|
B|(10)\n--------------|
G|(-9)\n--------------|
D|(-7)\n--------------|
A|--------------------|
E|--------------------|

E|-------------3-----------------------3--3-3-3----|
B|-------------3---3--3----------------3--3-3-3----|
G|-------------0---2--2----------------0--0-0-0----|
D|-------------0---0--0----------------0--0-0-0----|
A|-------------2-----------------------2--2-2-2----|
E|-0----0-2--3-3----------0----0-2---3-3--3-3-3----|

E|-----------------------------|
B|-----------------------------|
G|-----5--------------5--5--10-|
D|-----5--5--3--------5--5--10-|
A|-0-2-3--5--3----0-2-3--2--8--|
E|--------3--1-----------------| x4

E|------------------------------------------|
B|------------------------------------------|
G|------3~--------5~------3~----------------|
D|------3~--------5~------3~-55-5-5-5-5-5-5-|
A|---------------------------55-5-5-5-5-5-5-|
E|-0--0----5-5--5----0--0----33-3-3-3-3-3-3-|

Solo:
E|------------------------------------------------------------------------|
B|-10-----10-----10-----10-----10-----10--10--10--10--10--10--10--10--10--|
G|----9-7----9-7----9-7----9-7----9-7---97--97--97--97--97--97--97--97--97|
D|------------------------------------------------------------------------|
A|------------------------------------------------------------------------|
E|------------------------------------------------------------------------|

E|------------------------------------------------------------------------|
B|-10--10--10----12b14d12p10-12b14-12b14d12p10-12b14-12b14d12p10-12b14----|
G|---97--97--97-----------------------------------------------------------|
D|------------------------------------------------------------------------|
A|------------------------------------------------------------------------|
E|------------------------------------------------------------------------|

E|---------------------------------------------12-------|
B|-12b14--------------10101010-12121212--12b14----12b14-|
G|--------222222-9999-----------------------------------|
D|------------------------------------------------------|
A|------------------------------------------------------|
E|------------------------------------------------------|

E|-0-0-0-0-7-0-5-0-9-0-7-0-5-0-9-0-7-0-5-0-9-0-7-0-5-0-9-0-7-0-5-0--------|
B|-----------------------------------------------------------------9h10---|
G|------------------------------------------------------------------------|
D|------------------------------------------------------------------------|
A|------------------------------------------------------------------------|
E|------------------------------------------------------------------------|

E|-9h12p9---------9h12p9---------9h12p9---------9h12p9---------12b14d12b14|
B|--------10p9h10--------10p9h10--------10p9h10--------10p9h10------------|
G|------------------------------------------------------------------------|
D|------------------------------------------------------------------------|
A|------------------------------------------------------------------------|
E|------------------------------------------------------------------------|

Base solo: A5, E5, B5, D5 3x

E|--------------------|  |---------------|
B|-10-----10-----10---|  |---------------|
G|----9-7----9-7----9-|  |-9-9-9-9-9-9-9-|
D|--------------------|  |---------------|
A|--------------------|  |---------------|
E|--------------------|x7|---------------|

E|-------------3-----------------------3--3-3-3----|
B|-------------3---3--3----------------3--3-3-3----|
G|-------------0---2--2----------------0--0-0-0----|
D|-------------0---0--0----------------0--0-0-0----|
A|-------------2-----------------------2--2-2-2----|
E|-0----0-2--3-3----------0----0-2---3-3--3-3-3----|

E|-0--2--3--2---4----5-----5-----10-----12-----15b17-|
B|-0--2--3--3---7b9--8b10--8b10--13b15--15b17--------|
G|-------0--2----------------------------------------|
D|----------0----------------------------------------|
A|---------------------------------------------------|
E|---------------------------------------------------|

E|---------------------------------|
B|---8---8---8---8---8---8---8---8-|
G|-5---5---5---5---5---5---5---5---|
D|---------------------------------| 4x
A|---------------------------------|
E|---------------------------------|

E|----------------------------------|
B|---13--13--13--13--13--13--13--13-|
G|-12--12--12--12--12--12--12--12---|
D|----------------------------------| 4x
A|----------------------------------|
E|----------------------------------|

E|---------------------------------|
B|-18b20----18-17-15--17-15--------|
G|--------------------------17-----|
D|---------------------------------|
A|---------------------------------|
E|---------------------------------|

E|------------------20b22d20-22b24-|
B|-20b22d20------------------------|
G|---------------------------------|
D|---------------------------------|
A|---------------------------------|
E|---------------------------------|

Outro
E|--------------------------|
B|--------------------------|
G|-5-----------5-------10---|
D|-5---5---3---5---5---10---|
A|-3---5---3---3---5---8----|
E|-----3---1-------3--------|
  | Part 1 |  | Part 2 |


E|---------------------|
B|-13------8------6----|
G|-15b17---10b12--8b10-|
D|---------------------|
A|---------------------|
E|---------------------|

Final:
E|---------------------------------|
B|---------------------------------|
G|-10-9h10p9-7-9-7-5-0--2----------|
D|-10-9h10p9-7-9-7-5-0--2----------|
A|----------------------0----------|
E|---------------------------------|
00:00 / 00:00
Outros vídeos desta música
Repetir
Outros vídeos desta música
Composição de Joe Elliot / Joe Elliott / Phil Collen / Rick Allen / Rick Savage / Robert John Mutt Lange / Steve Clark
Colaboração e revisão:
  • Pedro Rodrigues
61 exibições
    • ½ Tom
    • A
    • Bb
    • B
    • C
    • Db
    • D
    • Eb
    • E
    • F
    • F#
    • G
    • Ab
  • Adicionar à lista

    0 comentários

    Ver todos os comentários

    Conseguiu tocar?

    0 Tocaram 0 Ainda não

    Grave um vídeo tocando Run Riot e nos envie!

    Entre para oCifra Club PRO

    Tenha acesso a benefícios exclusivos no App e no Site

    • Chega de anúncios

    • Prioridade de compra em lançamentos

    • Mais recursos no app do Afinador

    • Atendimento Prioritário

    • Descontos nos produtos Cifra Club

    • Ajude a produzir mais conteúdo

    00:00 / 00:00

    Cifra Club Pro

    Aproveite o Cifra Club com benefícios exclusivos e sem anúncios
    Cifra Club Pro
    Aproveite o Cifra Club com benefícios exclusivos e sem anúncios
    OK