Cifra Club

Aprenda

Be quiet and drive

Deftones

Cifra: Principal (violão e guitarra)
tom: Db
Afine meio tom abaixo com a 6ª mais um tom abaixo -> Eb Bb Gb Db Ab Db

Intro ->
D#|-------------------------------|-------------------------------
A#|---0-----0-----0-----0---0-----|--0-----0-----0-----0---0------
F#|---13----13----13----13--13/18-|--18----18----18----18--18/13--
C#|---0-----0-----0-----0---0-----|--0-----0-----0-----0---0------
G#|---12----12----12----12--12/17-|--17----17----17----17--17-12--
C#|-------------------------------|-------------------------------
versos ->
|--------------------------------------|-------------------------------------|
|--------------------------------------|-------------------------------------|
|---11----11-11----11--11----11-11-----|--11------11-----11--11----11--------|
|--------------------------------------|--11------11-----11--11----11--------|
|---9-----9--9-----9---9-----9--9------|--9-------9--9-9-9---9-----9--9-9-0--|
|---0---0-0--0---0-0---0---0-0--0--0-0-|--9---9-9-9--9-9-9---9---9-9--9-9-0--|

|-----------------------------------------|
|-----------------------------------------|este riff se repete em alguma parte
|*--11/12----12/14-14-14--12--12-12/11----|dos versos...
|*----------------------------------------|ouça com atenção para saber qdo fazê-lo
|---9/-10----10/12-12-12--10--10-10/9-----|
|----------0----------------------------0-|

antes do refrão repete-se a intro...
refrão - >
------------------------------------|-------------------------------------|
------------------------------------|-------------------------------------|
---11b-----11b---11---11b---11b-----|--11------11-----11--11----11--------|
------------------------------------|--11------11-----11--11----11--------|
---9b------9b----9----9b----9b------|--9-------9--9-9-9---9-----9--9-9-0--|
-------0-0-----0----0-----0-----0-0-|--9---9-9-9--9-9-9---9---9-9--9-9-0--|

depois do segundo refrão ->   h = harmonico natural
|----------------------------|
|----------------------------|
|----------4--4--------------|
|--0--0--4-4--4-0--0----2----|
|--0--0--4-4--4-0--0--2-2--2-|                                  }
|--0--0--4-4--4-0--0--2-2--2-|                                  }
         h h  h       h h  h                                    } 2x
                                                                }
----------------------------|-------------------------------|   }
----------------------------|-------------------------------|
----------4--4--------------|-------------------------------|
--0--0--4-4--4-0--0----2----|--0--0-------------------------|
--0--0--4-4--4-0--0--2-2--2-|--0--0--4-4----3/4-4-4-5-5-5-5-|
--0--0--4-4--4-0--0--2-2--2-|--0--0--4-4--4-3/4-4-4-5-5-5-5-|
        h h  h       h h  h          h h  h 
                                                             
|----------------------------|
|----------------------------|
|-------------x--------------|
|--0--0-------x-0--0----2----|
|--0--0--x-x--x-0--0--2-2--2-|
|--0--0--x-x--x-0--0--2-2--2-|
                      h h  h
                          
----------------------------|-------------------------------|
----------------------------|-------------------------------|
-------------x--------------|-------------------------------|
--0--0-------x-0--0----2----|--0--0-------------------------|
--0--0--x-x--x-0--0--2-2--2-|--0--0--4-4----3/4-4-4-5-5-5-5-|
--0--0--x-x--x-0--0--2-2--2-|--0--0--4-4--4-3/4-4-4-5-5-5-5-|
                     h h  h          h h  h
                                                      
----------------------------|----------------------------|
----------------------------|----------------------------|
----------4--4--------------|----------4--4--------------|
--0--0--4-4--4-0--0----2----|--0--0--4-4--4-0--0----2----|
--0--0--4-4--4-0--0--2-2--2-|--0--0--4-4--4-0--0--2-2--2-|
--0--0--4-4--4-0--0--2-2--2-|--0--0--4-4--4-0--0--2-2--2-|
        h h  h       h h  h          h h  h       h h  h 
                                
-------------------------------|--------------------|
-------------------------------|--------------------|
-------------------------------|--------------------|
--0--0-------------------------|--0-----------------|
--0--0--4-4----3/4-4-4-5-5-5-5-|--0-----------------|
--0--0--4-4--4-3/4-4-4-5-5-5-5-|--0-----------------|
e volta refrão .... page down and i say to you right now!
Composição de Deftones
20.520 exibições
    • ½ Tom
    • A
    • Bb
    • B
    • C
    • Db
    • D
    • Eb
    • E
    • F
    • F#
    • G
    • Ab
  • Adicionar à lista

    0 comentários

    Ver todos os comentários

    Conseguiu tocar?

    3 Tocaram 0 Ainda não

    Grave um vídeo tocando Be quiet and drive e nos envie!

    00:00 / 00:00
    Outros vídeos desta música
    Repetir Qualidade Automático
    Outros vídeos desta música
    00:00 / 00:00
    Automático

    Cifra Club Pro

    Aproveite o Cifra Club com benefícios exclusivos e sem anúncios
    Cifra Club Pro
    Aproveite o Cifra Club com benefícios exclusivos e sem anúncios
    OK