Cifra Club

Aprenda

O Girassol

Delacruz

Cifra: Principal (violão e guitarra)
tom: G
E|--------------------------------|
B|-------7--7---------------------|
G|------7--7----------------------|
D|----5---------------------------|
A|--7-----------------------------|
E|--------------------------------|

E|--------------------------------|
B|-------7--7---------------------|
G|------7--7----------------------|
D|----0---------------------------|
A|--------------------------------|
E|--7-----------------------------|

E|--------------------------------|
B|-------7--7---------------------|
G|------7--7----------------------|
D|----0---------------------------|
A|--0-----------------------------|
E|--------------------------------|

E|--------------------------------|
B|-------7--7---------------------|
G|------7--7----------------------|
D|----0---------------------------|
A|--5-----------------------------|
E|--------------------------------|

Compositor não encontrado.
Colaboração e revisão:
  • Daniel Dias
25.376 exibições
    • ½ Tom
    • A
    • Bb
    • B
    • C
    • Db
    • D
    • Eb
    • E
    • F
    • F#
    • G
    • Ab
  • Adicionar à lista

    0 comentários

    Ver todos os comentários

    Conseguiu tocar?

    13 Tocaram 13 Ainda não

    Grave um vídeo tocando O Girassol e nos envie!

    00:00 / 00:00
    Outros vídeos desta música
    Repetir Qualidade Automático
    Outros vídeos desta música
    00:00 / 00:00
    Automático

    Cifra Club Pro

    Aproveite o Cifra Club com benefícios exclusivos e sem anúncios
    Cifra Club Pro
    Aproveite o Cifra Club com benefícios exclusivos e sem anúncios
    OK