Enviar cifraEntrar

Trem Das Onze

Demônios da Garoa

Cifra: Principal
exibições 533.926
Tom: C
Introdução:

(Primeira Baixaria)

                                    Gm
E|------------------------------------------|
B|---3-2p1----------------------------------|
G|-2-------3-2p0----------------------------|
D|---------------4--1--0h1p0----------------|
A|---------------------------3p1p0----------|
E|---------------------------------3--------|


 Gm    G#º       Dm        Dm/C              E7               A7               D7
Zaaam zaaam zam zam zam zam, paiscalingundum, paiscalingundum, paiscalingundum...  2x

Dedilhado:

    Gm          G#º         Dm         Dm/C         E7          A7          D7
E|---------------------------1-----1-1---1-----1-1-------------------------2-|
B|---3-----3-3---3-----3-3---3-----3-3---3-----3-3---3-----3-3---2-----2-2-1-|
G|---3-----3-3---4-----4-4-----2---2-2-----2---2-2---1-----1-1---0-----0-0-2-|
D|-----5---5-5-----3---3-3-0-----0---------------------0---0-0-----2---2-2-0-|
A|-------------------------------------3-----3-----------------0-----0-------|
E|-3-----3-----3-----3-----------------------------0-----0-------------------|


(Segunda Baixaria)

    (D7)
E|--2----------------------------------------|
B|--1----------------------------------------|
G|--2----------------------------------------|
D|--0----0--2--4--0-2-4-5--------------------|
A|-------------------------------------------|
E|-------------------------------------------|


(Terceira Baixaria)

 Dm
E|--1---------------------------------------|
B|--3---------------------------------------|
G|--2--2------------------------------------|
D|--0---------------0-----------------------|
A|--------0---2--4--------------------------|
E|------------------------------------------|


Primeira Parte: 

             Dm
Não posso ficar

Nem mais um minuto com você

Sinto muito amor
         Bb7  A7   Eb7 D7
Mas não pode ser
 Gm  A7      Dm
Moro em Jaçanã
                        Bb7
Se eu perder esse trem
          A7
Que sai agora às onze horas
                 Dm
Só amanhã de manhã

    Dm                                                                Bb7
E|---1-----1-1---1-----1-1---1-----1-1---1-----1-1---1-----1-1---1---------|
B|---3-----3-3---3-----3-3---3-----3-3---3-----3-3---3-----3-3---3-----3-3-|
G|-----2---2-2-----2---2-2-----2---2-2-----2---2-2-----2---2-2-----2---1-1-|
D|-0-----0-----0-----0-----0-----0-----0-----0-----0-----0-----0-------3-3-|
A|-------------------------------------------------------------------1-----|
E|-------------------------------------------------------------------------|


    A7          Eb7   D7    Gm          A7          Dm
E|---------------------------------------------------1-----1-1----1-----1-1-|
B|---2-----2-2---4-----3-3---3-----3-3---2-----2-2---3-----3-3----3-----3-3-|
G|---0-----0-0---6-----5-5---3-----3-3---0-----0-0-----2---2-2------2---2-2-|
D|-----2---2-2-----5---4-4-----5---5-5-----2---2-2-0-----0------0-----0-----|
A|-0-----0-----6-----5-----------------0-----0------------------------------|
E|-------------------------3-----3------------------------------------------|


   

E|---1-----1-1---1-----------------------------------------------1-----1-1-|
B|---3-----3-3---3-----3-3---2-----2-2---2-----2-2---2-----2-2---3-----3-3-|
G|-----2---2-2-----2---1-1---0-----0-0---0-----0-0---0-----0-0-----2---2-2-|
D|-0-----0-----0-------3-3-----2---2-2-----2---2-2-----2---2-2-0-----0-----|
A|-------------------1-----0-----0-----0-----0-----0-----0-----------------|
E|-------------------------------------------------------------------------|


(Repete a 1ª parte)

Segunda Parte:
      D7
Além disso mulher
           Gm
Tem outra coisa
       Bb7
Minha mãe não dorme
                    A7 Eb7 D7
Enquanto eu não chegar
 Gm  G#º  Dm    Dm/C
Sou filho único
 E7          A7            Dm
Tenho minha casa pra olhar
                Eb7(9) (para repetir a partir da 1ª parte)
Não posso ficar
        ou      D7 (para repetir a introdução e acabar)

    D7                      Gm                      Bb7                     A7          Eb7   D7
E|---2-----2-2---2-----2-2-------------------------------------------------------------------------|
B|---1-----1-1---1-----1-1---3-----3-3---3-----3-3---3-----3-3---3-----3-3---2-----2-2---4-----3-3-|
G|-----2---2-2-----2---2-2---3-----3-3---3-----3-3---1-----1-1---1-----1-1---0-----0-0---6-----5-5-|
D|-0-----0-----0-----0---------5---5-5-----5---5-5-----3---3-3-----3---3-3-----0---2-2-----5---4-4-|
A|-------------------------------------------------1-----1-----1-----1-----0-----0-----6-----5-----|
E|-------------------------3-----3-----3-----3-----------------------------------------------------|


(Última Baixaria)


     Dm                 Eb7(9)
E|--1------------------1--------------------|
B|--3------------------2--------------------|
G|--2-----1p0----------0--------------------|
D|--0---------4-3-2-1-----------------------|
A|------------------------------------------|
E|------------------------------------------|
  • 1
  • 2
  • 3
  • 4
  • 5
  • 6
  • 7
  • 8
  • 9
  • 10
  • 11
  • 12
    Acordes para:
      Composição: Adoniran BarbosaColaboração e revisão:
      • Gabriel
      • pedro
      • elendur

      0 comentários

        mostrar mais comentários

        Conseguiu tocar?

        35tocaram2ainda não

        Grave um vídeo tocando Trem Das Onze e mande pra gente!

        00:00 / 00:00
        outros vídeos desta música
        repetirqualidadeautomática
        • automática
        Outro vídeos desta música
          Capítulos
          • Início
          • Acordes da introdução
          • Tocando a introdução
          • Ensinando a primeira baixaria
          • Ensinando o ritmo (batida) da música
          • Dicas
          • Ensinando a segunda baixaria
          • Ensinando a terceira baixaria
          • Acordes da primeira parte
          • Tocando a primeira parte
          • Dicas
          • Acordes da segunda parte
          • Tocando a segunda parte
          • Ensinando o ritmo da segunda parte
          • Encerramento
          00:00 / 00:00
          automática
          • automática
          Acordes para:violão e guitarra
          dificuldadeexibiçõescontribuições
          1 versão de Partiturasformatodownloadscontribuição
          fecharplay/pause subir/descer velocidade
            acordes
            fechar
            OK
            Feedback