Cifra Club

Trem Das Onze

Demônios da Garoa

Cifra: Principal (violão e guitarra)
tom: Dm
[Intro]

[Primeira Baixaria]

                                    Gm
E|------------------------------------------|
B|---3-2p1----------------------------------|
G|-2-------3-2p0----------------------------|
D|---------------4--1--0h1p0----------------|
A|---------------------------3p1p0----------|
E|---------------------------------3--------|

 Gm    G#º       Dm        
Zaaam zaaam zam zam zam zam 
Dm/C                 E7                A7              
     Paiscalingundum,  paiscalingundum
                D7
Paiscalingundum

[Segunda Baixaria]

    D7
E|--2----------------------------------------|
B|--1----------------------------------------|
G|--2----------------------------------------|
D|--0-0-2-4-0-2-4-5--------------------------|
A|-------------------------------------------|
E|-------------------------------------------|

 Gm    G#º       Dm        
Zaaam zaaam zam zam zam zam 
Dm/C                 E7                A7              
     Paiscalingundum,  paiscalingundum
                D7
Paiscalingundum

[Terceira Baixaria]

    Dm
E|--1---------------------------------------|
B|--3---------------------------------------|
G|--2--2------------------------------------|
D|--0-----------0---------------------------|
A|--------0-2-4-----------------------------|
E|------------------------------------------|

[Ritmo da Música]

   Gm
E|------------------------------------------|
B|---3-----3-3----3-----3-3-----------------|
G|---3-----3-3----3-----3-3-----------------|
D|-----5---5-5------5---5-5-----------------|
A|------------------------------------------|
E|-3-----3------3-----3---------------------|

[Primeira Parte]

             Dm
Não posso ficar

Nem mais um minuto com você

Sinto muito amor
         Bb7  A7  Eb7  D7
Mas não pode ser
 Gm  A7      Dm
Moro em Jaçanã
                       Bb7
Se eu perder esse trem
          A7
Que sai agora às onze horas
                 Dm
Só amanhã de manhã

Não posso ficar

Nem mais um minuto com você

Sinto muito amor
         Bb7  A7  Eb7  D7
Mas não pode ser
 Gm  A7      Dm
Moro em Jaçanã
                       Bb7
Se eu perder esse trem
          A7
Que sai agora às onze horas
                 Dm
Só amanhã de manhã

[Segunda Parte]

      D7
Além disso mulher
           Gm
Tem outra coisas
       Bb7
Minha mãe não dorme
                    A7 
Enquanto eu não chegar
 Gm  G#º  Dm    Dm/C
Sou filho único
 E7          A7            Dm
Tenho minha casa pra olhar
                Eb7(9) 
Não posso ficar

[Quarta Baixaria]

    Dm            Eb7(9)
E|--1-------------1-------------------------|
B|--3-------------2-------------------------|
G|--2-1p0---------0-------------------------|
D|--0-----4-3-2-1---------------------------|
A|------------------------------------------|
E|------------------------------------------|
00:00 / 00:00
Outros vídeos desta música
Repetir
Outros vídeos desta música
Composição de Adoniran Barbosa
Colaboração e revisão:
749.357 exibições
  • Simplificar cifra
    • ½ Tom
    • Am
    • Bbm
    • Bm
    • Cm
    • C#m
    • Dm
    • Ebm
    • Em
    • Fm
    • F#m
    • Gm
    • G#m
  • Adicionar à lista

    0 comentários

    Ver todos os comentários

    Entre para oCifra Club PRO

    Tenha acesso a benefícios exclusivos no App e no Site

    • Chega de anúncios

    • Prioridade de compra em lançamentos

    • Mais recursos no app do Afinador

    • Atendimento Prioritário

    • Descontos nos produtos Cifra Club

    • Ajude a produzir mais conteúdo

    00:00 / 00:00
    Capítulos
    • Início
    • Acordes da introdução
    • Tocando a introdução
    • Ensinando a primeira baixaria
    • Ensinando o ritmo (batida) da música
    • Dicas
    • Ensinando a segunda baixaria
    • Ensinando a terceira baixaria
    • Acordes da primeira parte
    • Tocando a primeira parte
    • Dicas
    • Acordes da segunda parte
    • Tocando a segunda parte
    • Ensinando o ritmo da segunda parte
    • Encerramento

    Cifra Club Pro

    Aproveite o Cifra Club com benefícios exclusivos e sem anúncios
    Cifra Club Pro
    Aproveite o Cifra Club com benefícios exclusivos e sem anúncios
    OK