Cifra Club

Blood On My Hands

Demons & Wizards

Cifra: Principal (violão e guitarra)
Selo Cifra Club: esta cifra foi revisada para atender aos critérios oficiais da nossa Equipe de Qualidade.
tom: Eb
E|------------------------------|
B|------------------------------|
G|------------------------------|
D|------------------------------|
A|------------------------------|
E|-0-000-000-000-000-000--[| etc]-|
    * *** *** *** *** ***

Riff 1                       x2
E|---------------------------|--------------|
B|---------------------------|--------------|
G|-9----7-7----4-5----4------|--------------|
D|-9----5-7----2-5----5----2-|--------------|
A|-7------5------3----2----2-|--------------|
E|-------------------------0-|-3-2-0--3-2-3-|
                                * * *  * * *

Lead into next section:
eb|-17^^r-17-15-14-15^r-14-|
B|------------------------|
G|------------------------|
D|------------------------|
A|------------------------|
E|------------------------|

Riff 2
Guitar 1                         x2
E|-------------------------------|------------------|
B|-------------------------------|------------------|
G|-------------------------------|------------------|
D|-2-------9---------------------|-2--------4-------|
A|-2-------7---------------------|-3--------5-------|
E|-0-0-000-0-0-0-0-0-3-2-0-3-2-3-|----3-2-3---3-2-3-|
      * ***   * * * * * * * * * *      * * *   * * *
  "And as I bear......"

E|-------------------------------|
B|-------------------------------|
G|-------------------------------|
D|-2-------9---------------------|
A|-2-------7---------------------|
Eb|-0-0-000-0-0-0-0-0-3-2-0-3-2-3-|
      * ***   * * * * * * * * * *

Guitar 2
E|-12----12----14----14----15----17----19---|
B|-15^^--15^^--17^^--17^^--18^^--20^^--22^^-|
G|------------------------------------------|
D|------------------------------------------|
A|------------------------------------------|
E|------------------------------------------|



Riff 3
E|-----------------------------------------------------|
B|-----------------------------------------------------|
G|---------------------------------------------------4-|
D|-9-----12-10--9-10-9--7-----9--7--5-7-5--5---------5-|
A|-7--77--7--7--7--7-7--5--55-5--5--5-5-5--3--3-2-3--2-|
E|-----------------------------------------------------|
       **                   **                 * * *
  "And what have started......"

E|-------------------------------------|
B|-------------------------------------|
G|-------------------------------------|
D|-------2-------9---------------------|
A|-------2-------7---------5-----------|
Eb|-3-2-3-0-0-000-0-0-0-0-0-3-2-0-3-2-3-|
    * * *   * ***   * * * *   * * * * *


Riff 4
E|-----0--------0--------0------------------------|
B|-------0--------0--------0----------------------|
G|------------------------------------------------|
D|-9---------2--------7---------------------------|
A|-7---------3--------5--------5-----7-------5--7-|
E|-----------------------------3--3--5--5-5--3--5-|
                                   *     * *
  "Runes of a long forgotten time...."

Play Riff 1   "By the ancient..."
Play Riff 2   "Lost in time......"
Play Riff 3   "The curse lives......"
Play Riff 4   "Roam......"
Play Riff 1   "By the ancient..."
Play Riff 2   "Oh it seems......."

Riff 5
Guitar 1
E|--------------------------------------------------------------|
B|---------3----------------------------------------------------|
G|-----4-5---5-4-5-2~~---2-4-5-4-2-4---------2-4-2~~------------|
D|-2---------------------------------5~~---5----------4-2-0-2~~-|
A|--------------------------------------------------------------|
E|--------------------------------------------------------------|

Guitar 2
E|---------2----------------------------------------------------|
B|-----3-5---5-3-5-3~~-----3-5-3---3-----------3----------------|
G|-0---------------------5-------5---5~~---4-5---5~~--2---------|
D|------------------------------------------------------5-4-5~~-|
A|--------------------------------------------------------------|
E|--------------------------------------------------------------|

This lead comes in over riff 5 the second time:

Guitar 3
E|-14-12----15-12----14-12----15-12----17-12-15-12-|
B|-------12-------12-------12-------12-------------|
G|-------------------------------------------------|
D|-------------------------------------------------|
A|-------------------------------------------------|
E|-------------------------------------------------|

E|-14-12----15-12----14-12----15-12----17-12-15-12-|
B|-------13-------13-------13-------13-------------|
G|-------------------------------------------------|
D|-------------------------------------------------|
A|-------------------------------------------------|
E|-------------------------------------------------|

E|-15-12----17-12----15-12----17-12----19----17-14-|
B|-------13-------13-------13-------13----15-------|
G|-------------------------------------------------|
D|-------------------------------------------------|
A|-------------------------------------------------|
E|-------------------------------------------------|

E|-15~~----15^-14-----------------------|
B|----------------17--15--14------------|
G|----------------------------16-15-----|
D|----------------------------------17--|
A|--------------------------------------|
E|--------------------------------------|

Guitar 4
E|-17-15----19-15----17-15----19-15----20-15-19-15-|
B|-------15-------15-------15-------15-------------|
G|-------------------------------------------------|
D|-------------------------------------------------|
A|-------------------------------------------------|
E|-------------------------------------------------|

E|-17-15----19-15----17-15----19-15----20-15-19-15-|
B|-------17-------17-------17-------17-------------|
G|-------------------------------------------------|
D|-------------------------------------------------|
A|-------------------------------------------------|
E|-------------------------------------------------|

E|-19-15----20-15----19-15----20-15----22---20-17-|
B|-------17-------17-------17-------17----19------|
G|------------------------------------------------|
D|------------------------------------------------|
A|------------------------------------------------|
E|------------------------------------------------|

E|-19~---19^-17------------------------|
B|---------------20--19--17------------|
G|---------------------------19-18-----|
D|---------------------------------21--|
A|-------------------------------------|
E|-------------------------------------|

End of leads

Play Riff 4    solo rhythm

Here's the leads over this part:
Guitar 2 plays top notes
E|-----------------------------------------12-14-15-17-17b19r17-|
B|-/8~~--8-10-12-8~~--8-10-12-10~~--/13-15----------------------|
G|-/9~~--9-11-12-9~~--9-11-12--7~~------------------------------|
D|--------------------------------------------------------------|
A|--------------------------------------------------------------|
E|--------------------------------------------------------------|

eb|-15-14-15-12~~~-12-14-15-12~~~-12-14-17b19r17p15-17~~-|
B|------------------------------------------------------|
G|------------------------------------------------------|
D|------------------------------------------------------|
A|------------------------------------------------------|
E|------------------------------------------------------|

E|-17-19~~-21~---19-17-19~~-|
B|--------------------------|
G|--------------------------|
D|--------------------------|
A|--------------------------|
E|--------------------------|

End leads

Play Riff 1 with this addition:
Guitar 2
E|-----------------------------------------|
B|-----------------------------------------|
G|-----------------------------------------|
D|-----------------------------------------|
A|-7~~---9-10---------7--9-----------------|
E|-------------10~~---------8~~--7~~---0---|

Guitar 3
E|-----------------------------------------|
B|-----------------------------------------|
G|-9~~--11-12---------9-11-----------------|
D|-------------12~~--------10~~--9~~-------|
A|-------------------------------------7~~-|
E|-----------------------------------------|


Play Riff 2   "Lost in time........"

Here's the ending lead:
E|-/10-10-10-10-12~-/15~-14~-\10~-12~~-------------------------------|
B|-------------------------------------15b17-15-13-12----------------|
G|---------------------------------------------------14-12-14b16r14~-|
D|-------------------------------------------------------------------|
A|-------------------------------------------------------------------|
E|-------------------------------------------------------------------|

E|---------------------------------|
B|---------------------------------|
Gb|-14b16r14-12-11~-12b14r12-11-9~~-|
D|---------------------------------|
A|---------------------------------|
E|---------------------------------|

E|-------12----12----14----14----15----17----19---|
B|---12--15^^--15^^--17^^--17^^--18^^--20^^--22^^-|
G|-11---------------------------------------------|
D|------------------------------------------------|
A|------------------------------------------------|
E|------------------------------------------------|

notation:
^   =  bend [ ^ = half, ^^ = whole, etc. ]
^r  =  bend and release
x   =  mute with fret-hand
*   =  mute with palm-hand
X\\ =  pick slide
h   =  hammer-on
p   =  pull-off
~   =  vibrato
t   =  tap-on
/   =  slide up
\   =  slide down
h.  =  harmonics
ah  =  artificial harmonic
(9) =  ghost note
tm  =  trem picking
tr  =  trill
Outros vídeos desta música
    32 exibições
      • ½ Tom
      • A
      • Bb
      • B
      • C
      • Db
      • D
      • Eb
      • E
      • F
      • F#
      • G
      • Ab
    • Adicionar à lista

    Afinação da cifra

    Afinador online

      0 comentários

      Ver todos os comentários

      Entre para o Cifra Club PRO

      Tenha acesso a benefícios exclusivos no App e no Site

      • Chega de anúncios

      • Badges exclusivas

      • Mais recursos no app do Afinador

      • Atendimento Prioritário

      • Aumente seu limite de lista

      • Ajude a produzir mais conteúdo

      Cifra Club Pro

      Aproveite o Cifra Club com benefícios exclusivos e sem anúncios
      Cifra Club Pro
      Aproveite o Cifra Club com benefícios exclusivos e sem anúncios
      Ops (: Contenido disponible sólo en portugués.
      OK