Cifra Club

Autumn Breeze

Denis Warren

Cifra: Principal (violão e guitarra)
Selo Cifra Club: esta cifra foi revisada para atender aos critérios oficiais da nossa Equipe de Qualidade.
tom: A
(Guitarra 1)
        NH     NH       NH
E|------------------12---L--------|---L----------------|
B|---------12--L------------------|--------------------|
G|--------------------------------|--------------------|
D|--------------------------------|--------------------|
A|--12----------------------------|--------------------|
E|--------------------------------|--------------------|
                                      A7M(9)                  A6(9)
------------------12---L--------|------------------------|-------------------|
---------12--L------------------|--12pbr-----------------|-------------------|
--------------------------------|------------------------|-------------------|
--------------------------------|------------------------|-------------------|
--12----------------------------|------------------------|-------------------|
--------------------------------|------------------------|-------------------|
  D7M(9)/F#                         C#m/B
---------------------------------|-----------------------|
---------------------------------|-----------------------|
--9h--------11--L---L------------|--6b--------L----------|
---------------------------------|---------------6-------|
---------------------------------|--------------------7--|
---------------------------------|-----------------------|
  A7M(9)                     A6(9)
--------------------------|------------------7-5-|
--------------------------|----------------------|
--------------------------|----------------------|
--------------------------|----------------------|
--L--------L--------2s-4s-|--2-------------------|
--------------------------|----------------------|
  D7M(9)/F#                        C#m/B                  C#m7
--4-----------------------------|----------------------|----------------------|
------------5-L-----------------|----------------------|--9b------------------|
--------------------------------|--6b---------------9--|-------------------9--|
-----------------9s--L--4--L----|----------------------|----------------------|
--------------------------------|----------------------|----------------------|
--------------------------------|----------------------|----------------------|
   E/B                          E/F#
----------------------------|---------------------------|
--10b-----------------12----|--14b-------------L--------|
-------------------11----11-|------------------------16-|
----------------------------|---------------------------|
----------------------------|---------------------------|
----------------------------|---------------------------|
     F#m7(11)                           E11
----------------------------------|----------------------|
----------------------------------|----------------------|
---L------L----L---L--------------|---L------------------|
----------------------------------|----------------------|
----------------------------------|----------------------|
----------------------------------|----------------------|
   A9                      D/A
---------------------------------|------------------------------|
--10h-12--L---L------------9pbr--|--7---------------------------|
---------------------------------|-----9s--4s--6~--L------------|
---------------------------------|------------------------------|
---------------------------------|-------------------------9p-7-|
---------------------------------|------------------------------|
  A9                      D/A
------------------------------|---------------------------|
------------------------------|---------------------------|
------------------------------|---------------------------|
------------------------------|---------------------6s-7--|
--9s---7----9p-7s-2s------7---|--L-----------5s--4--------|
------------------------------|---------------------------|
  A9               D/A
-----------------------|------------------------|
-----------------------|------------------------|
-----------------------|-------------------7p-6-|
--7------------Ls--9---|--L--------L------------|
-----------------------|------------------------|
-----------------------|------------------------|
  A9                       D/A                                D/F#
-------------------------------|---------------------------|-------------------|
-----------5---5----5----5-L---|--L------------------------|--7----------------|
------------------6------------|-----6s--L--L--9--L--------|-------------------|
--7----------------------------|---------------------------|-------------------|
------7------------------------|---------------------------|-------------------|
-------------------------------|---------------------------|-------------------|
  E/G#                                D/A             C#m7           Bm9
----------------------------------|-----------------------------------------|
--9s----10-----------------10s-12-|--12~-------10p-9-10p--9-----------------|
----------------------------------|-------------------------11-9---7-----6h-|
------------11s---L--9------------|-----------------------------------------|
----------------------------------|-----------------------------------------|
----------------------------------|-----------------------------------------|
                               D7M(9)        B4/D
----------------------------|---------------------5-4-|
----------------------------|-------------------------|
--7p-6----------------------|--4b---------------------|
-------7--------------------|-------------------------|
---------7-L--------L-------|-------------------------|
----------------------------|-------------------------|
  D9             E7/D            E7/D           D9
------------------------------|-------------5---L------L---|
--5----------------------3p-2-|--5-------------------------|
-----6------------------------|----------2-----------------|
--------7s-9s-2--L------------|-------4--------------------|
------------------------------|----------------------------|
------------------------------|----------------------------|
  D2              E/D          D7M(9)       B4/D
---------------------------|------------------------17p-16-|
--9b----9pbr--9~--L--------|--12b------12---L--------------|
---------------------------|-------------------------------|
---------------------------|-------------------------------|
---------------------------|-------------------------------|
---------------------------|-------------------------------|
   D9             E7/D              E7/D           D9
------------19-------------------|---------------------------------|
--17-----17----------------------|---------------------------------|
------16---------------------7---|--7p---6-------------------------|
-----------------14~-------------|---------7-----------------------|
---------------------------------|-------------9---9s-L-12-7--L----|
---------------------------------|---------------------------------|
  D2               E/D                 E/A
-----------------------------9-12~-|---L------12p-9-12p---9h-12p---9-|
------------7-10~--L-------9-------|---------------------------------|
----------7--------------9---------|---------------------------------|
--------7--------------9-----------|---------------------------------|
------7----------------------------|---------------------------------|
-----------------------------------|---------------------------------|
   Bm7(11)
--12b-----12--9--------------------------|-------------------------------------|
----------------10-----------------------|-------------------9-10--10h-12-9p-7-|
-------------------11~---L--13p-11s-9----|--L-------11p-9-11-------------------|
-----------------------------------------|-------------------------------------|
-----------------------------------------|-------------------------------------|
-----------------------------------------|-------------------------------------|
  G#dim                   D7M
-------------------------------|-----------------7---7-9s-12p--9----|
-------------------------------|------------------------------------|
--9-----6--7s--9--9--7p-6------|-------------6-9---9-------------11-|
--------------------------7----|--L--------7------------------------|
-------------------------------|-------7-9--------------------------|
-------------------------------|------------------------------------|
  E/A
       PM PM PM   PM PM
---------------9-------------------------|
-----------------------9-----------------|
--9----------------------------9~--L-----|
-----------------------------------------|
------12-11-12---11-12---11-12-----------|
-----------------------------------------|
   Bm7(11)
--14---------------------14~---L-----16-------16-|
----------------14-------------------------17----|
-------------------14-16----------------18-------|
----------14-16----------------------------------|
-------------------------------------------------|
-------------------------------------------------|

--------17~---L-------------------14-17p-14-19b--|
-----17------------------------14----------------|
--18------------------------14-------------------|
------------------16p-14-16----------------------|
-------------------------------------------------|
-------------------------------------------------|
    G#dim                                     D7M
---L--------x-19b--19pb--19pb--19-17-19s-21-21s---17-|
---------x-------------------------------------------|
-----------------------------------------------------|
-----------------------------------------------------|
-----------------------------------------------------|
-----------------------------------------------------|
                                 A7M(9)
--17~---------L--------14-16-|--12------L------------------------|
-----------------------------|--------------12-14-10~-------9p-7-|
-----------------------------|-----------------------------------|
-----------------------------|-----------------------------------|
-----------------------------|-----------------------------------|
-----------------------------|-----------------------------------|
  A6(9)
--------------------------------------|
--------------------------------------|
--9-----7---7h-9-6~--L----------------|
--------------------------------------|
--------------------------------------|
-------------------------------12s-14-|
   D7M(9)/F#
------------------------------12-14p-12-17p-14--------|
---------------------------12-------------------------|
------------------11-13-14---------------------16~----|
------------11-14-------------------------------------|
--12--------------------------------------------------|
------------------------------------------------------|
  C#m/B                                        A7M(9)
--------17p-14-19---14---21p-17-17~---L----|---L-------------------------12b-|
-------------------------------------------|------------12b~---L-----L-------|
-------------------------------------------|---------------------------------|
-------------------------------------------|---------------------------------|
-------------------------------------------|---------------------------------|
-------------------------------------------|---------------------------------|
  A6(9)
--------9---------------------------------|
----------10------------------------------|
-------------11-9-6h-7p-6-----------------|
--------------------------7---------------|
----------------------------9s-4--L--4p-2-|
------------------------------------------|
  D7M(9)/F#                             C#m/B
-------------------------------------|---------------------------------|
-------------------------------------|---------------------------------|
-------------------------------------|-----------------------------9---|
-------------------------------------|---------------------------------|
--4b--------2-4b--2-------------4p-2-|--4b----2-4b--2------------------|
--------------------5---2------------|----------------5-L-5s-7---------|
  C#m7                        E/B
--------------------------|-----------------------------|
--9b--------L--7----------|--10b---------L-9-10---L-----|
-----------------9-6~-----|-----------------------------|
--------------------------|-----------------------------|
--------------------------|-----------------------------|
--------------------------|-----------------------------|
   E/F#                            F#m7(11)
-------------------------------|-----------------------------------------|
--14b---------L--12------------|-----------------------------------------|
-------------------------------|--14-------16---14h-16-14h-16~--L--------|
------------------------14s-16-|-----------------------------------------|
-------------------------------|-----------------------------------------|
-------------------------------|-----------------------------------------|
   E11                A9                      D/A
--------------------|---------------------------------|
--------------------|--10h-12--L---L------------9pbr--|
---L----------------|---------------------------------|
--------------------|---------------------------------|
--------------------|---------------------------------|
--------------------|---------------------------------|
                                 A9                      D/A
------------------------------|------------------------------|
--7---------------------------|------------------------------|
-----9s--4s--6~--L------------|------------------------------|
------------------------------|------------------------------|
-------------------------9p-7-|--9s---7----9p-7s-2s------7---|
------------------------------|------------------------------|
                              A9               D/A
---------------------------|-----------------------|------------------------|
---------------------------|-----------------------|------------------------|
---------------------------|-----------------------|-------------------7p-6-|
---------------------6s-7--|--7------------Ls--9---|--L--------L------------|
--L-----------5s--4--------|-----------------------|------------------------|
---------------------------|-----------------------|------------------------|
  A9                       D/A                                D/F#
-------------------------------|---------------------------|-------------------|
-----------5---5----5----5-L---|--L------------------------|--7----------------|
------------------6------------|-----6s--L--L--9--L--------|-------------------|
--7----------------------------|---------------------------|-------------------|
------7------------------------|---------------------------|-------------------|
-------------------------------|---------------------------|-------------------|
  E/G#                                D/A             C#m7           Bm9
----------------------------------|-----------------------------------------|
--9s----10-----------------10s-12-|--12~-------10p-9-10p--9-----------------|
----------------------------------|-------------------------11-9---7-----6h-|
------------11s---L--9------------|-----------------------------------------|
----------------------------------|-----------------------------------------|
----------------------------------|-----------------------------------------|
                               D7M(9)        B4/D
----------------------------|---------------------5-4-|
----------------------------|-------------------------|
--7p-6----------------------|--4b---------------------|
-------7--------------------|-------------------------|
---------7-L--------L-------|-------------------------|
----------------------------|-------------------------|
  D9             E7/D            E7/D           D9
------------------------------|-------------5---L------L---|
--5----------------------3p-2-|--5-------------------------|
-----6------------------------|----------2-----------------|
--------7s-9s-2--L------------|-------4--------------------|
------------------------------|----------------------------|
------------------------------|----------------------------|
  D2              E/D          D7M(9)       B4/D
---------------------------|------------------------17p-16-|
--9b----9pbr--9~--L--------|--12b------12---L--------------|
---------------------------|-------------------------------|
---------------------------|-------------------------------|
---------------------------|-------------------------------|
---------------------------|-------------------------------|
   D9             E7/D              E7/D              D9
------------19-------------------|----------------------------------|
--17-----17----------------------|----------------------------------|
------16---------------------7---|--7p---6--------------------------|
-----------------14~-------------|---------7------------------------|
---------------------------------|-------------9---9s-L--12-7--L----|
---------------------------------|----------------------------------|
  D2               E/D                 E/A
-----------------------------9-12~-|---L----------------------------|
------------7-10~--L-------9-------|--------------------------------|
----------7--------------9---------|----------4s-6--6p~----4--------|
--------7--------------9-----------|--------------------------4s-2--|
------7----------------------------|--------------------------------|
-----------------------------------|--------------------------------|
  Bm7(11)
----------------------------4----|-----------------------|
------------------------------5--|--L--------L-----------|
-------------4s-6--6--6-6-6------|--------------------7--|
--L------------------------------|-----------------------|
---------------------------------|-----------------------|
---------------------------------|-----------------------|
  G#dim                     D7M
--------------------------------|-------------------------------|
--------------------------------|-------------------------------|
--7-----7--7s--6--4s----6s--2---|--L----L--------4s-6s-4--------|
--------------------------------|-------------------------2s-4s-|
--------------------------------|-------------------------------|
--------------------------------|-------------------------------|
  E/A                                 Bm7(11)
                    PM PM PM
-----------------------------------|----------------------------------|
-----------------------------------|--------------------------2-------|
-------------------------------2---|--2~-----------2~--L----------2---|
--2-----------------------2--4-----|----------4-----------4-----------|
------2s-4s-2-------2--4-----------|----------------------------------|
-----------------------------------|----------------------------------|
                                  G#dim                     D7M
-------------------------------|--------------------------------|
-------------------------------|--------------------------------|
--2~---------2s-4s~-L----L--7--|--7-----7--7s--6--4s----6s--2---|
-------4-----------------------|--------------------------------|
-------------------------------|--------------------------------|
-------------------------------|--------------------------------|
                              A7M(9)
---------------------------|--9------------12---L----------------|
---------------------10----|---------10--------------------10----|
--L---------------------11-|----------------------------------11-|
------------------12-------|----------------------------12-------|
---------------------------|-------------------------------------|
---------------------------|-------------------------------------|
  A6(9)                               D7M(9)/F#
--9--------------------------------|--9------------------------------------|
--------10-------------------10----|------------10----9p-7-----------------|
--------------9~--L-------------11-|-----------------------9p---7----6h-7s-|
--------------------------12-------|---------------------------------------|
-----------------------------------|---------------------------------------|
-----------------------------------|---------------------------------------|
  C#m/B                            A7M(9)                 A6(9)
--------------------------------|----------------------|--------------------|
--------------------------------|------------------9---|--L------------9----|
--9s----6----2s-4s-2----Ls--1s--|--2-------------------|--------------------|
--------------------------------|----------------------|--------------------|
--------------------------------|----------------------|--------------------|
--------------------------------|----------------------|--------------------|
  D7M(9)/F#                    C#m/B
----------------------------|-------------------|-------------------|
--L---------7--L---L--------|--L----------------|-------------------|
----------------------------|-------------------|--2----------------|
----------------------------|-------------------|-------------------|
----------------------------|-------------------|-------------------|
----------------------------|-------------------|-------------------|
  A7M(9)
-------------------|--------------------|-------------------||
-------------------|--------------------|-------------------||
--L----------------|--L~----------------|--L----------------||
-------------------|--------------------|-------------------||
-------------------|--------------------|-------------------||
-------------------|--------------------|-------------------||
Outros vídeos desta música
122 exibições
    • ½ Tom
    • A
    • Bb
    • B
    • C
    • Db
    • D
    • Eb
    • E
    • F
    • F#
    • G
    • Ab
  • Adicionar à lista

Afinação da cifra

Afinador online

    0 comentários

    Ver todos os comentários

    Entre para o Cifra Club PRO

    Tenha acesso a benefícios exclusivos no App e no Site

    • Chega de anúncios

    • Mais recursos no app do Afinador

    • Atendimento Prioritário

    • Aumente seu limite de lista

    • Ajude a produzir mais conteúdo

    Cifra Club Pro

    Aproveite o Cifra Club com benefícios exclusivos e sem anúncios
    Cifra Club Pro
    Aproveite o Cifra Club com benefícios exclusivos e sem anúncios