Cifra Club

Blue Tone

Denis Warren

Cifra: Principal (violão e guitarra)
Selo Cifra Club: esta cifra foi revisada para atender aos critérios oficiais da nossa Equipe de Qualidade.
tom: E
E|----------------------9----L--12---L---------|
B|--------------10---L-10b---L--13h-14---------|
G|---------------9h-11-----------------14~-----|
D|--11-11-11-11--------------------------------|
A|---------------------------------------------|
E|---------------------------------------------|

--14b---12-----------------------------|-------x-7--8----L----x-x-12--|
-----------15--13--15b---13------------|--14-----8--7br--L------------|
----------------------------14---12-13-|--14--------------------------|
---------------------------------------|------------------------------|
---------------------------------------|------------------------------|
---------------------------------------|------------------------------|

---L----L-----15---L------L-----|----------------------9----L--12---L---------|
--13----L---------17~-----L-----|--------------10---L-10b---L--13h-14---------|
-------14--L--------------------|---------------9h-11-----------------14~-----|
--------------------------------|--11-11-11-11--------------------------------|
--------------------------------|---------------------------------------------|
--------------------------------|---------------------------------------------|

--14b---12-----------------------------|-------x-7--8----L----8---x-x-|
-----------15--13--15b---13------------|--14-----8--7br--L----7-------|
----------------------------14---12-13-|--14--------------------------|
---------------------------------------|------------------------------|
---------------------------------------|------------------------------|
---------------------------------------|------------------------------|

--3--L---3p-0-------------------------------------------|
--4h-5----------7p-5p-0---------------------------------|
-------5------5---------7p-5p-0-4p-2p-0-----------------|
----------------------------------------4p-2p-0---------|
------------------------------------------------5p-3p-0-|
--------------------------------------------------------|

--------------------------------------------|----------------------------|
------8---7-----------5---------------------|----------------------------|
--2---7---7-----5b----5---------------------|----------------------------|
--2-----------7-----7-----4--5--------------|--2---3---4-----------------|
--0-----------------------------5p-3p-0-----|--2---3---4-----------------|
----------------------------------------3---|--0---1---2--x--0-0-3p-0-3--|

--------------------------------------------|----------------------------|
------8---7-----------5---------------------|----------------------------|
--2---7---7-----5b----5---------------------|----------------------------|
--2-----------7-----7-----4--5--------------|--2---3---4-----------------|
--0-----------------------------5p-3p-0-----|--2---3---4-----------------|
----------------------------------------3---|--0---1---2--x--0-0-3p-0-3--|

--------------------------------------------|----------------------------|
------8---7-----------5---------------------|----------------------------|
--2---7---7-----5b----5---------------------|----------------------------|
--2-----------7-----7-----4--5--------------|--2---3---4-----------------|
--0-----------------------------5p-3p-0-----|--2---3---4-----------------|
----------------------------------------3---|--0---1---2--x--0-0-3p-0-3--|

--------------------------------------------|----------------------------|
------8---7-----------5---------------------|----------------------------|
--2---7---7-----5b----5---------------------|----------------------------|
--2-----------7-----7-----4--5--------------|--2---3---4-----------------|
--0-----------------------------5p-3p-0-----|--2---3---4-----------------|
----------------------------------------3---|--0---1---2--x--0-0-3p-0-3--|

----------------------------------|-----------------------------|
---------8b---7-------------------|--8--L--L-8-L----------------|
-----7-9--------9--7----------7---|--7h-9--L-7-L----------------|
----------------------7h-8h-9-----|----------------9-----7------|
----------------------------------|-----------------------------|
----------------------------------|-----------------------------|

-------------------------15------------15------|
--------12-13p-12-15p-13------12-13-15----15---|
-----12----------------------------------------|
-----------------------------------------------|
-----------------------------------------------|
-----------------------------------------------|

--12b-----L---10-------------------|----------------------------------|
-----------------13---12b---L------|---------8b---7-------------------|
-------------------------------12--|-----7-9--------9--7----------7---|
-----------------------------------|----------------------7h-8h-9-----|
-----------------------------------|----------------------------------|
-----------------------------------|----------------------------------|

-----------------------------|-------------------------15------------15------|
--8--L--L-8-L----------------|--------12-13p-12-15p-13------12-13-15----15---|
--7h-9--L-7-L----------------|-----12----------------------------------------|
----------------9-----7------|-----------------------------------------------|
-----------------------------|-----------------------------------------------|
-----------------------------|-----------------------------------------------|

--12b-----L---10-------------------|------------------------------|
-----------------13---12b---L------|--------------12b---L-10------|
-------------------------------12--|-------------------------12---|
-----------------------------------|------------------------------|
-----------------------------------|------------------------------|
-----------------------------------|------------------------------|

-------------------------------|------------------------------|
-------------------------------|--------------12b---L-10------|
--9---12----12h-14-9s----7~----|-------------------------12---|
-------------------------------|------------------------------|
-------------------------------|------------------------------|
-------------------------------|------------------------------|

---------------------------------|---------------------------------|
--10---12--L--13--13~------12-13-|--13h-15~--L---L-----L\----------|
---------------------------------|---------------------------------|
---------------------------------|---------------------------------|
---------------------------------|---------------------------------|
---------------------------------|---------------------------------|

-----------------------------12---L---------|
--------------------10~---L--13h-14---------|
--------------9h-11-----------------14~-----|
--11-11-11-11-------------------------------|
--------------------------------------------|
--------------------------------------------|

--14b---12-----------------------------|
-----------15--13--15b---13------------|
----------------------------14---12-13-|
---------------------------------------|
---------------------------------------|
---------------------------------------|

----------------------------------------|
----------------17--L--L------L----13b--|
--14~----Ls-18---L-18--L~-----L\--------|
----------------------------------------|
----------------------------------------|
----------------------------------------|

-----9-12-14-----------------------------------|
---L---------12pbr--10-------------------------|
-----------------------12-10h-11---------------|
--------------------------10---L-12------------|
-----------------------------------------10b---|
--------------------------------------12-------|

-------------------9~-L-x-8h-9--------|
-------------------------------10~----|
--------------7s-9-L------------------|
--------------------------------------|
--12-----L\---------------------------|
--------------------------------------|

--10b----10b--10pb--10pb--10pbr--8----11b--10b--|
-----------------------------------10-----------|
------------------------------------------------|
------------------------------------------------|
------------------------------------------------|
------------------------------------------------|

--8b-------------------------------------|
-------10--L--7h-8p-7--------------------|
--------------7--L--L-9s-10---7b--x-5b---|
-----------------------------------------|
-----------------------------------------|
-----------------------------------------|

--------------------8---10---10-10p-8-10~--|
-------------7-10--------------------------|
-----------7-------------------------------|
--7---4s-7---------------------------------|
-------------------------------------------|
-------------------------------------------|

--15b-----L--12----12-15-12----L-------------|
--15b-----L-----15-------13b---L-------------|
----------------------------------14~---L----|
---------------------------------------------|
---------------------------------------------|
---------------------------------------------|

-------------12------------------------------|
------10---L---------------------------------|
---L---9h-11----11p-9---------5p-0-7b---5p-0-|
----------------------10b--L-----------------|
---------------------------------------------|
---------------------------------------------|

-------------------12----------17b---L----|
------15b---L---------13-------17b---L----|
-------------------------14-12------------|
--7---------------------------------------|
------------------------------------------|
------------------------------------------|

--17-17-15---------------15--------------------------|
-----------17-15h-16h-17----17-15h-16p-15------------|
------------------------------------------17~----17--|
-----------------------------------------------------|
-----------------------------------------------------|
-----------------------------------------------------|

----------------------------------------------|
----------------------------------------------|
---L~---------L---12b--L--12b--<>12-----------|
-------------------------------------14--12b--|
----------------------------------------------|
----------------------------------------------|

-----------------------------------------|-------------------------|
-----------------------------------------|-------------------------|
--------------7-7b-5---------------------|-------------------------|
--<>12p-10-----------7-5-----------------|-------------------------|
-----------12------------7-6-5-3-5-5b--3-|-------------------------|
-----------------------------------------|--5~---------------------|

-------------------|----------------------------------|
-------------------|---------8b---7-------------------|
-------------------|-----7-9--------9--7----------7---|
-------------------|----------------------7h-8h-9-----|
-------------------|----------------------------------|
-------------------|----------------------------------|

-----------------------------|-------------------------15------------15------|
--8--L--L-8-L----------------|--------12-13p-12-15p-13------12-13-15----15---|
--7h-9--L-7-L----------------|-----12----------------------------------------|
----------------9-----7------|-----------------------------------------------|
-----------------------------|-----------------------------------------------|
-----------------------------|-----------------------------------------------|

--12b-----L---10-------------------|----------------------------------|
-----------------13---12b---L------|---------8b---7-------------------|
-------------------------------12--|-----7-9--------9--7----------7---|
-----------------------------------|----------------------7h-8h-9-----|
-----------------------------------|----------------------------------|
-----------------------------------|----------------------------------|

-----------------------------|-------------------------15------------15------|
--8--L--L-8-L----------------|--------12-13p-12-15p-13------12-13-15----15---|
--7h-9--L-7-L----------------|-----12----------------------------------------|
----------------9-----7------|-----------------------------------------------|
-----------------------------|-----------------------------------------------|
-----------------------------|-----------------------------------------------|

--12b-----L---10-------------------|------------------------------|
-----------------13---12b---L------|--------------12b---L-10------|
-------------------------------12--|-------------------------12---|
-----------------------------------|------------------------------|
-----------------------------------|------------------------------|
-----------------------------------|------------------------------|

-------------------------------|------------------------------|
-------------------------------|--------------12b---L-10------|
--9---12----12h-14-9s----7~----|-------------------------12---|
-------------------------------|------------------------------|
-------------------------------|------------------------------|
-------------------------------|------------------------------|

---------------------------------|---------------------------------|
--10---12--L--13--13~------12-13-|--13h-15~--L---L-----L\----------|
---------------------------------|---------------------------------|
---------------------------------|---------------------------------|
---------------------------------|---------------------------------|
---------------------------------|---------------------------------|

-------------------------|---------------------------------|
-----------6p--5---------|---------------------------------|
------------------7--5~--|--L-----7s-9--7p--L--5-----------|
-------------------------|-----7------------------7--5s-7--|
-------------------------|---------------------------------|
-------------------------|---------------------------------|

--------------------------|--------------------------8--10--|
-------------6p--5--------|---------------------8-10--------|
--------------------7--5--|--L-----7s-9--7--L---------------|
--5----L------------------|-----7---------------------------|
--------------------------|---------------------------------|
--------------------------|---------------------------------|

--8~---------12pbr-------------|---------------------------15b----|
----------------------15--13~--|---L------15b--15---L--13---------|
-------------------------------|------14--------------------------|
-------------------------------|----------------------------------|
-------------------------------|----------------------------------|
-------------------------------|----------------------------------|

--15~---------x--17b---L---15-|--17b---L--15------------------------------|
------------------------------|--------------17b---L--15------------------|
------------------------------|--------------------------17~-----L--L\----|
------------------------------|-------------------------------------------|
------------------------------|-------------------------------------------|
------------------------------|-------------------------------------------|

---------------------------------------------|----------------------------|
--10p-8p-7-5---------------------------------|----------------------------|
---------------8p-7p-5----------7--------5---|--7---5----x-x-x-5----x-2---|
-----------------------7---5h-6-----3h-4-----|--7---5----x-x-x-5----x-2---|
---------------------------------------------|--5---3----x-x-x-3----x-0---|
---------------------------------------------|----------------------------|

---------------------------------|--------------------------------------------|
---------------------------------|--------------------------------------------|
--7---5----x-x------7--------5---|--7---5-----------------------5----5--------|
--7---5----x-x-5h-6-----3h-4-----|--7---5---------------0-3-4-5--------7-L----|
--5---3--------------------------|--5---3----0-0-3p-0-4-----------------------|
---------------------------------|--------------------------------------------|

----------------------------|----------------------------|
----------------------------|----------------------------|
----------------------------|----------------------------|
--7---6---5---x---x-x-------|--7---6---5---x---x-x-------|
--7---6---5---x---x-x-------|--7---6---5---x---x-x-------|
--5---4---3---x---x-x-3-4---|--5---4---3---x---x-x-3-4---|

----------------------------|
----------------------------|
----------------------------|
--7---6---5---x---x-x-------|
--7---6---5---x---x-x-------|
--5---4---3---x---x-x-3-4---|

----------------10p-8p-7p-5--------------------------------------------------|
----------------------------10p-8p-7p-5--------------------------------------|
----------------------------------------10p-8p-7p-5--------------------------|
--7----6----5---------------------------------------10p-8p-7p-5--------------|
--7----6----5---------------------------------------------------10p-8p-7p-5~-|
--5----4----3----------------------------------------------------------------|

--------------------------------------------------------------------------|
--3-----------6p-5--------------------------------------------------------|
--2-----------5-------x--7--x--x--2---5------4----------------------------|
--0----0--0-0---------x--7--x--x--3---3------5----------------------------|
---------------------------------------------------x---x-x-3p-0-5---------|
--------------------------------------------------------------------x-3---|

--------------------------------------------------------------------------|
--3-----------6p-5--------------------------------------------------------|
--2-----------5-------x--7--x--x--2---5------4----------------------------|
--0----0--0-0---------x--7--x--x--3---3------5----------------------------|
---------------------------------------------------x---x-x-3p-0-5---------|
--------------------------------------------------------------------x-3---|

-----------------8--------------------------------------------------------------
--8s-10--L---L--------10-8---6~-L------------8---6----5--L----------------------
-------------------10--------------7---5--7--------------------5--7-------------
------------------------------------------------------------7--------5b---3-----
----------------------------------------------------------------------------5---
--------------------------------------------------------------------------------

-----------------8-----------------------------------------------12~---------15p
--8s-10--L---L--------10-8---6~-L------6--8---8p-6-8--L---13p-10----------------
-------------------10--------------7--------------------------------------------
--------------------------------------------------------------------------------
--------------------------------------------------------------------------------
--------------------------------------------------------------------------------

--------------------------------|-------------------------------|
----------------12b---L-10------|-------------------------------|
--14~----------------------12---|--9---12----12h-14-9s----7~----|
--------------------------------|-------------------------------|
--------------------------------|-------------------------------|
--------------------------------|-------------------------------|

------------------------------|---------------------------------|
--------------12b---L-10------|--10---12--L--13--13~------12-13-|
-------------------------12---|---------------------------------|
------------------------------|---------------------------------|
------------------------------|---------------------------------|
------------------------------|---------------------------------|

----------------------------|-------------------------|
--13h-15~--L---L------------|-----------6p--5---------|
----------------------------|------------------7--5~--|
----------------------------|-------------------------|
----------------------------|-------------------------|
----------------------------|-------------------------|

---------------------------------|--------------------------|
---------------------------------|-------------6p--5--------|
--L-----7s-9--7p--L--5-----------|--------------------7--5--|
-----7------------------7--5s-7--|--5----L------------------|
---------------------------------|--------------------------|
---------------------------------|--------------------------|

--------------------------8--10--|--8~---------12pbr-------------|
---------------------8-10--------|----------------------15--13~--|
--L-----7s-9--7--L---------------|-------------------------------|
-----7---------------------------|-------------------------------|
---------------------------------|-------------------------------|
---------------------------------|-------------------------------|

---------------------------15b----|--15~---------x--17b---L---15-|
---L------15b--15---L--13---------|------------------------------|
------14--------------------------|------------------------------|
----------------------------------|------------------------------|
----------------------------------|------------------------------|
----------------------------------|------------------------------|

--17b---L--15------------------------------|-------------------------|
--------------17b---L--15------------------|-----------6p--5---------|
--------------------------17~-----L--L\----|------------------7--5~--|
-------------------------------------------|-------------------------|
-------------------------------------------|-------------------------|
-------------------------------------------|-------------------------|

---------------------------------|--------------------------|
---------------------------------|-------------6p--5--------|
--L-----7s-9--7p--L--5-----------|--------------------7--5--|
-----7------------------7--5s-7--|--5----L------------------|
---------------------------------|--------------------------|
---------------------------------|--------------------------|

--------------------------8--10--|--8~---------12pbr-------------|
---------------------8-10--------|----------------------15--13~--|
--L-----7s-9--7--L---------------|-------------------------------|
-----7---------------------------|-------------------------------|
---------------------------------|-------------------------------|
---------------------------------|-------------------------------|

---------------------------15b----|--15~---------x--17b---L---15-|
---L------15b--15---L--13---------|------------------------------|
------14--------------------------|------------------------------|
----------------------------------|------------------------------|
----------------------------------|------------------------------|
----------------------------------|------------------------------|

--17b---L--15------------------------|--------------------------||
--------------17b---L--15------------|--------------------------||
--------------------------17~--------|---L-----L----L\----------||
-------------------------------------|--------------------------||
-------------------------------------|--------------------------||
-------------------------------------|--------------------------||

Outros vídeos desta música
90 exibições
    • ½ Tom
    • A
    • Bb
    • B
    • C
    • Db
    • D
    • Eb
    • E
    • F
    • F#
    • G
    • Ab
  • Adicionar à lista

Afinação da cifra

Afinador online

    0 comentários

    Ver todos os comentários

    Entre para o Cifra Club PRO

    Tenha acesso a benefícios exclusivos no App e no Site

    • Chega de anúncios

    • Mais recursos no app do Afinador

    • Atendimento Prioritário

    • Aumente seu limite de lista

    • Ajude a produzir mais conteúdo

    Cifra Club Pro

    Aproveite o Cifra Club com benefícios exclusivos e sem anúncios
    Cifra Club Pro
    Aproveite o Cifra Club com benefícios exclusivos e sem anúncios
    OK