Cifra Club

Earthquake

Denis Warren

Cifra: Principal (violão e guitarra)
Selo Cifra Club: esta cifra foi revisada para atender aos critérios oficiais da nossa Equipe de Qualidade.
tom: E
E|----------------------|--------------------------------------------|
B|----------------------|--------------------------------------------|
G|----------------------|--------------------4h-5p-4p-0--------------|
D|----------------------|---------3p-0-5----------------5---3p-0-----|
A|----------------------|----------------------------------------3---|
E|---------------13\----|--3--3-3------------------------------------|

---------------------------|--------------------------------------------|
---------------------------|--------------------------------------------|
---------------------------|--------------------4h-5p-4p-0--------------|
-----------3-------3-------|---------3p-0-5----------------5---3p-0-----|
--1---3----3-------3-------|----------------------------------------3---|
-----------1----1--1---x-x-|--3--3-3------------------------------------|

---------------------------|--------------------------------------------|
---------------------------|--------------------------------------------|
---------------------------|--------------------4h-5p-4p-0--------------|
-----------3-------3-------|---------3p-0-5----------------5---3p-0-----|
--1---3----3-------3-------|----------------------------------------3---|
-----------1----1--1---x-x-|--3--3-3------------------------------------|

---------------------------|--------------------------------------------|
---------------------------|--------------------------------------------|
---------------------------|--------------------4h-5p-4p-0--------------|
-----------3-------3-------|---------3p-0-5----------------5---3p-0-----|
--1---3----3-------3-------|----------------------------------------3---|
-----------1----1--1---x-x-|-3---3-3------------------------------------|
                              PM  PM  PM
---------------------------|------------------10--13--12------|
---------------------------|----------10--11--------------13--|
---------------------------|------12--------------------------|
-----------3-------3-------|--12------------------------------|
--1---3----3-------3-------|----------------------------------|
-----------1----1--1---x-x-|----------------------------------|

--14------15------15b~--------|--18b~------18pbr--17--------------|
------------------------------|-----------------------18------18--|
------12------14--------------|---------------------------15------|
------------------------------|-----------------------------------|
------------------------------|-----------------------------------|
------------------------------|-----------------------------------|
                                      PM  PM  PM
--15------------------------------|------------------10--13--12------|
--------------15--18--17----------|----------10--11--------------13--|
----------15--------------17------|------12--------------------------|
------15----------------------17--|--12------------------------------|
----------------------------------|----------------------------------|
----------------------------------|----------------------------------|

--14------15------15b~--------|--18b~------18pbr--17--------------|
------------------------------|-----------------------18------18--|
------12------14--------------|---------------------------15------|
------------------------------|-----------------------------------|
------------------------------|-----------------------------------|
------------------------------|-----------------------------------|

--15------------------------------|--13p-12-13b~---L-----------------------|
--------------15--18--17----------|-----------------------11--13pbr---L-11-|
----------15--------------17------|----------------------------------------|
------15----------------------17--|----------------------------------------|
----------------------------------|----------------------------------------|
----------------------------------|----------------------------------------|

------------------------------|---------------------------------|
---------13b----13~----11-----|--11---13--L-----11--------------|
--12~-------------------------|----------------------12~--L-----|
------------------------------|---------------------------------|
------------------------------|---------------------------------|
------------------------------|---------------------------------|
   PM  PM
--------------10--12------13------|--13p-12-13b~---L-----------------------|
----------11----------13------13--|-----------------------11--13pbr---L-11-|
------12--------------------------|----------------------------------------|
--13------------------------------|----------------------------------------|
----------------------------------|----------------------------------------|
----------------------------------|----------------------------------------|

------------------------------|---------------------------------|
---------13b----13~----11-----|--11---13--L-----11--------------|
--12~-------------------------|----------------------12~--L-----|
------------------------------|---------------------------------|
------------------------------|---------------------------------|
------------------------------|---------------------------------|
   PM  PM                             PM PM PM PM PM PM PM
--------------10--12------13------|--------------------------------|
----------11----------13------13--|--------------------------------|
------12--------------------------|------8--8--7--7--7--8--10--10--|
--13------------------------------|--10----------------------------|
----------------------------------|--------------------------------|
----------------------------------|--------------------------------|
      PM PM PM PM PM PM              PM PM PM PM PM PM PM
---------------------------------|--------------------------------|
---------------------------------|--------------------------------|
---L--7--7--7--------------------|------8--8--7--7--7--8--10--10--|
---------------8--8--8--5--5~----|--10----------------------------|
---------------------------------|--------------------------------|
---------------------------------|--------------------------------|
      PM PM PM                       PM PM PM PM PM PM PM
---------------------------------|--------------------------------|
---------------------------------|--------------------------------|
---L--7--7--7--8-8-8--7--<>7~----|------8--8--7--7--7--8--10--10--|
---------------------------------|--10----------------------------|
---------------------------------|--------------------------------|
---------------------------------|--------------------------------|
      PM PM PM PM PM PM              PM PM PM PM PM PM PM
---------------------------------|--------------------------------|
---------------------------------|--------------------------------|
---L--7--7--7--------------------|------8--8--7--7--7--8--10--10--|
---------------8--8--8--5--5~----|--10----------------------------|
---------------------------------|--------------------------------|
---------------------------------|--------------------------------|

-----10h-11--L--8h-10--L--8--Ls-10--------|--------------------------|
-----------------------------------11s-8~-|--L--------L---6br--L---4-|
------------------------------------------|--------------------------|
------------------------------------------|--------------------------|
------------------------------------------|--------------------------|
------------------------------------------|--------------------------|
                           PM PM
-----------------------|----------------------------------|
--6b--------L----------|---------------8--11--11h-13~--L--|
-----------------------|---------7--8---------------------|
-----------------------|------8---------------------------|
-----------------------|--10------------------------------|
-----------------------|----------------------------------|

--------------------------------------------|---------------------------|
--------------------------------------------|---------------------------|
--------------------4h-5p-4p-0--------------|---------------------------|
---------3p-0-5----------------5---3p-0-----|-----------3-------3-------|
----------------------------------------3---|--1---3----3-------3-------|
--3--3-3------------------------------------|-----------1----1--1---x-x-|

--------------------------------------------|---------------------------|
--------------------------------------------|---------------------------|
--------------------4h-5p-4p-0--------------|---------------------------|
---------3p-0-5----------------5---3p-0-----|-----------3-------3-------|
----------------------------------------3---|--1---3----3-------3-------|
--3--3-3------------------------------------|-----------1----1--1---x-x-|

--------------------------------------------|---------------------------|
--------------------------------------------|---------------------------|
--------------------4h-5p-4p-0--------------|---------------------------|
---------3p-0-5----------------5---3p-0-----|-----------3-------3-------|
----------------------------------------3---|--1---3----3-------3-------|
--3--3-3------------------------------------|-----------1----1--1---x-x-|

--------------------------------------------|---------------------------|
--------------------------------------------|---------------------------|
--------------------4h-5p-4p-0--------------|---------------------------|
---------3p-0-5----------------5---3p-0-----|-----------3-------3-------|
----------------------------------------3---|--1---3----3-------3-------|
--3--3-3------------------------------------|-----------1----1--1---x-x-|
   PM  PM  PM
------------------10--13--12------|--14------15------15b~--------|
----------10--11--------------13--|------------------------------|
------12--------------------------|------12------14--------------|
--12------------------------------|------------------------------|
----------------------------------|------------------------------|
----------------------------------|------------------------------|

--18b~------18pbr--17--------------|--15------------------------------|
-----------------------18------18--|--------------15--18--17----------|
---------------------------15------|----------15--------------17------|
-----------------------------------|------15----------------------17--|
-----------------------------------|----------------------------------|
-----------------------------------|----------------------------------|
   PM  PM  PM
------------------10--13--12------|--14------15------15b~--------|
----------10--11--------------13--|------------------------------|
------12--------------------------|------12------14--------------|
--12------------------------------|------------------------------|
----------------------------------|------------------------------|
----------------------------------|------------------------------|

--18b~------18pbr--17--------------|--15------------------------------|
-----------------------18------18--|--------------15--18--17----------|
---------------------------15------|----------15--------------17------|
-----------------------------------|------15----------------------17--|
-----------------------------------|----------------------------------|
-----------------------------------|----------------------------------|

--13p-12-13b~---L-----------------------|------------------------------|
-----------------------11--13pbr---L-11-|---------13b----13~----11-----|
----------------------------------------|--12~-------------------------|
----------------------------------------|------------------------------|
----------------------------------------|------------------------------|
----------------------------------------|------------------------------|
                                     PM  PM
---------------------------------|--------------10--12------13------|
--11---13--L-----11--------------|----------11----------13------13--|
----------------------12~--L-----|------12--------------------------|
---------------------------------|--13------------------------------|
---------------------------------|----------------------------------|
---------------------------------|----------------------------------|

--13p-12-13b~---L-----------------------|------------------------------|
-----------------------11--13pbr---L-11-|---------13b----13~----11-----|
----------------------------------------|--12~-------------------------|
----------------------------------------|------------------------------|
----------------------------------------|------------------------------|
----------------------------------------|------------------------------|
                                    PM  PM
---------------------------------|--------------10--12------13------|
--11---13--L-----11--------------|----------11----------13------13--|
----------------------12~--L-----|------12--------------------------|
---------------------------------|--13------------------------------|
---------------------------------|----------------------------------|
---------------------------------|----------------------------------|
   PM PM PM PM PM PM PM                PM PM PM PM PM PM
--------------------------------|---------------------------------|
--------------------------------|---------------------------------|
------8--8--7--7--7--8--10--10--|---L--7--7--7--------------------|
--10----------------------------|---------------8--8--8--5--5~----|
--------------------------------|---------------------------------|
--------------------------------|---------------------------------|
   PM PM PM PM PM PM PM                PM PM PM
--------------------------------|---------------------------------|
--------------------------------|---------------------------------|
------8--8--7--7--7--8--10--10--|---L--7--7--7--8-8-8--7--<>7~----|
--10----------------------------|---------------------------------|
--------------------------------|---------------------------------|
--------------------------------|---------------------------------|
   PM PM PM PM PM PM PM                PM PM PM PM PM PM
--------------------------------|---------------------------------|
--------------------------------|---------------------------------|
------8--8--7--7--7--8--10--10--|---L--7--7--7--------------------|
--10----------------------------|---------------8--8--8--5--5~----|
--------------------------------|---------------------------------|
--------------------------------|---------------------------------|
   PM PM PM PM PM PM PM                 PM PM PM  PM PM PM PM PM PM
--------------------------------|---------------------------------------|
--------------------------------|---------------------------------------|
------8--8--7--7--7--8--10--10--|---L--12-12-12--10-10-10--8--8--8--7~--|
--10----------------------------|---------------------------------------|
--------------------------------|---------------------------------------|
--------------------------------|---------------------------------------|

-----11-11-11-----------------------|--------------------------------------|
---------------11----------11--11~--|---L----------11---L--11h-13----------|
-------------------12--13-----------|-----------------------------10b--10--|
------------------------------------|------12--13--------------------------|
------------------------------------|--------------------------------------|
------------------------------------|--------------------------------------|

--------------------------------|---------------------------|
--------------------------------|---------------------------|
--8h-10--L---L-------7br--L---5-|--7b------5----------------|
--------------------------------|-------------8p--5--5s--3--|
--------------------------------|---------------------------|
--------------------------------|---------------------------|

----------------------------------------|--------------8s-10--L--------------|
--------------------------------------8-|--11--------------------11---L------|
-------------------------------7-8-10---|------10---L--------------------10--|
--3h-5--L--L-----------------8----------|------------------------------------|
-------------------5s-6-8-10------------|------------------------------------|
----------------------------------------|------------------------------------|

--------------18---L----------22~--|---L--18---L------------------------|
----------------------18---L-------|--------------18---L--18h-20~--L----|
---L--12---L-----------------------|------------------------------------|
-----------------------------------|------------------------------------|
-----------------------------------|------------------------------------|
-----------------------------------|------------------------------------|

-----------------------|-----------------------|--9p---8-L-----8---9-L--11h-13-|
--6br------------L--6--|--7b~------------L-----|------------9------------------|
-----------------------|-----------------------|-------------------------------|
-----------------------|-----------------------|-------------------------------|
-----------------------|-----------------------|-------------------------------|
-----------------------|-----------------------|-------------------------------|

-----------------------------14p-13-|--14p---13--L----------------------|
--13s-11--L---L-----L---------------|---------------14--14-----L---11---|
------------------------------------|-----------------------------------|
------------------------------------|-----------------------------------|
------------------------------------|-----------------------------------|
------------------------------------|-----------------------------------|

---------------------------------16-18-20-|--20b---20--L--18-16---------16b--|
--11--------------------------16----------|---------------------18-----------|
-------13~--L--------------17-------------|----------------------------------|
--------------------15--18----------------|----------------------------------|
------------------------------------------|----------------------------------|
------------------------------------------|----------------------------------|

--16b----------------------|------------------------------------|
---------------------------|------------------------------------|
--------------------15p-13-|--15b---13--L-------13~-------10p-8-|
---------------------------|----------------15------------------|
---------------------------|------------------------------------|
---------------------------|------------------------------------|

---------------------------------9-11--|--11---9-L--8--9---11--L--11s-16-|
-------------------------------9-------|---------------------------------|
--10b---8~-L----------------10---------|---------------------------------|
-------------------8--10-11------------|---------------------------------|
---------------------------------------|---------------------------------|
---------------------------------------|---------------------------------|

--13~-----L--------------------16-18p-16--|--20b---20--L--18-20-------------|
----------------------------16------------|---------------------18~---------|
-------------------------17---------------|---------------------------------|
-------------------16-18------------------|---------------------------------|
------------------------------------------|---------------------------------|
------------------------------------------|---------------------------------|

--23b---23--L--21--21~---------|--18-----------18--16-----------16---|
-------------------------------|-------------------------------------|
-------------------------------|-------18--L------------17--L--------|
-------------------------------|-------------------------------------|
-------------------------------|-------------------------------------|
-------------------------------|-------------------------------------|

-------------------------|-------------------------|-------------------------|
--18b--------18~---------|--18p---16-18------------|--18p---16-18------------|
-------------------------|-------------------------|-------------------------|
-------------------------|-------------------------|-------------------------|
-------------------------|-------------------------|-------------------------|
-------------------------|-------------------------|-------------------------|

-------------------|------------------------|------------------------|
-------------------|--6---------------------|------------------------|
-------------------|----6--------6-5--------|--5----------5----------|
-------------------|------------------------|----6----------6--------|
-------------------|------------------------|------------------------|
-------------------|------------------------|------------------------|

--------------------------------------------|---------------------------|
--------------------------------------------|---------------------------|
--------------------4h-5p-4p-0--------------|---------------------------|
---------3p-0-5----------------5---3p-0-----|-----------3-------3-------|
----------------------------------------3---|--1---3----3-------3-------|
--3--3-3------------------------------------|-----------1----1--1---x-x-|

--13p-12-13b~---L-----------------------|------------------------------|
-----------------------11--13pbr---L-11-|---------13b----13~----11-----|
----------------------------------------|--12~-------------------------|
----------------------------------------|------------------------------|
----------------------------------------|------------------------------|
----------------------------------------|------------------------------|
                                     PM  PM
---------------------------------|--------------10--12------13------|
--11---13--L-----11--------------|----------11----------13------13--|
----------------------12~--L-----|------12--------------------------|
---------------------------------|--13------------------------------|
---------------------------------|----------------------------------|
---------------------------------|----------------------------------|

--13p-12-13b~---L-----------------------|------------------------------|
-----------------------11--13pbr---L-11-|---------13b----13~----11-----|
----------------------------------------|--12~-------------------------|
----------------------------------------|------------------------------|
----------------------------------------|------------------------------|
----------------------------------------|------------------------------|
                                     PM  PM
---------------------------------|--------------10--12------13------|
--11---13--L-----11--------------|----------11----------13------13--|
----------------------12~--L-----|------12--------------------------|
---------------------------------|--13------------------------------|
---------------------------------|----------------------------------|
---------------------------------|----------------------------------|
   PM PM PM PM PM PM PM                PM PM PM PM PM PM
--------------------------------|---------------------------------|
--------------------------------|---------------------------------|
------8--8--7--7--7--8--10--10--|---L--7--7--7--------------------|
--10----------------------------|---------------8--8--8--5--5~----|
--------------------------------|---------------------------------|
--------------------------------|---------------------------------|
   PM PM PM PM PM PM PM                PM PM PM
--------------------------------|---------------------------------|
--------------------------------|---------------------------------|
------8--8--7--7--7--8--10--10--|---L--7--7--7--8-8-8--7--<>7~----|
--10----------------------------|---------------------------------|
--------------------------------|---------------------------------|
--------------------------------|---------------------------------|
   PM PM PM PM PM PM PM                PM PM PM PM PM PM
--------------------------------|---------------------------------|
--------------------------------|---------------------------------|
------8--8--7--7--7--8--10--10--|---L--7--7--7--------------------|
--10----------------------------|---------------8--8--8--5--5~----|
--------------------------------|---------------------------------|
--------------------------------|---------------------------------|
   PM PM PM PM PM PM PM
--------------------------------|-----10h-11--L--8h-10--L--8--Ls-10--------|
--------------------------------|-----------------------------------11s-8~-|
------8--8--7--7--7--8--10--10--|------------------------------------------|
--10----------------------------|------------------------------------------|
--------------------------------|------------------------------------------|
--------------------------------|------------------------------------------|

--------------------------|-----------------------|
--L--------L---6br--L---4-|--6b--------L----------|
--------------------------|-----------------------|
--------------------------|-----------------------|
--------------------------|-----------------------|
--------------------------|-----------------------|
   PM PM
----------------------------------|--------------------------|
---------------8--11--11h~-13--L--|-----------------6--------|
---------7--8---------------------|--5-----7-----5--5--------|
------8---------------------------|--5-----5-----5-----------|
--10------------------------------|--3--3-----3--------3--3--|
----------------------------------|--------------------------|

--------------------------|--------------------------|
--6--5--------------------|-----------------6--------|
--------5-----------7--5--|--L-----7-----5--5--------|
-----------5-----5-----5--|--------5-----5-----------|
--------------6--------3--|--L--3-----3--------3--3--|
--------------------------|--------------------------|

--------------------------|--------------------------|
--6--5--------------------|-----------------6--------|
--------5-----------7--5--|--L-----7-----5--5--------|
-----------5-----5-----5--|--------5-----5-----------|
--------------6--------3--|--L--3-----3--------3--3--|
--------------------------|--------------------------|

--------------------------|--------------------------|
--6--5--------------------|-----------------6--------|
--------5-----------7--5--|--L-----7-----5--5--------|
-----------5-----5-----5--|--------5-----5-----------|
--------------6--------3--|--L--3-----3--------3--3--|
--------------------------|--------------------------|

--------------------------|---------------------------|
--6--5-----------------4--|--L-----5------------------|
--------5-----------7--4--|--------4------------------|
-----------5-----5-----4--|--------4------------------|
--------------6-----------|-----2-----2--5p--4--------|
--------------------------|---------------------5--0--|

----------------------------|---------------------------|
-------------------------4--|--L-----5------------------|
-------------------------4--|--L-----4------------------|
-------------------------4--|--L-----4------------------|
----------------------------|-----2-----2--5p--4--------|
--2p--0--2--<>5~------------|---------------------5--0--|

----------------------------|---------------------------|
-------------------------4--|--L-----5------------------|
-------------------------4--|--L-----4------------------|
-------------------------4--|--L-----4------------------|
----------------------------|-----2-----2--5p--4--------|
--2p--0--2--<>5~------------|---------------------5--0--|

----------------------------|---------------------------|
-------------------------4--|--L-----5------------------|
-------------------------4--|--L-----4------------------|
-------------------------4--|--L-----4------------------|
----------------------------|-----2-----2--5p--4--------|
--2p--0--2--<>5~------------|---------------------5--0--|

----------------------------|----------------------------|
----------------------------|----------------------------|
----------------------------|----------------------------|
----------------------------|----------------------------|
-------------------------2--|--------2-----------2-------|
--2p--0--2--<>5~---------0--|-----0--0---0-0-0-0-0-------|

------------------------|--------------------------|------------------------|
------------------------|--------------------------|------------------------|
------------------------|--------------------------|------------------------|
------------------------|--------------------------|------------------------|
--2-----2-------2-------|--2----2----------2-------|--2-----2-------2-------|
--0-----0-------0-------|--0----0--0-0-0-0-0-------|--0-----0-------0-------|
   PM PM PM PM PM PM PM                PM PM PM PM PM PM
--------------------------------|---------------------------------|
--------------------------------|---------------------------------|
------8--8--7--7--7--8--10--10--|---L--7--7--7--------------------|
--10----------------------------|---------------8--8--8--5--5~----|
--------------------------------|---------------------------------|
--------------------------------|---------------------------------|
   PM PM PM PM PM PM PM                PM PM PM
--------------------------------|---------------------------------|
--------------------------------|---------------------------------|
------8--8--7--7--7--8--10--10--|---L--7--7--7--8-8-8--7--<>7~----|
--10----------------------------|---------------------------------|
--------------------------------|---------------------------------|
--------------------------------|---------------------------------|
   PM PM PM PM PM PM PM                PM PM PM PM PM PM
--------------------------------|---------------------------------|
--------------------------------|---------------------------------|
------8--8--7--7--7--8--10--10--|---L--7--7--7--------------------|
--10----------------------------|---------------8--8--8--5--5~----|
--------------------------------|---------------------------------|
--------------------------------|---------------------------------|
   PM PM PM PM PM PM PM
--------------------------------|-----10h-11--L--8h-10--L--8--Ls-10--------|
--------------------------------|-----------------------------------11s-8~-|
------8--8--7--7--7--8--10--10--|------------------------------------------|
--10----------------------------|------------------------------------------|
--------------------------------|------------------------------------------|
--------------------------------|------------------------------------------|

--------------------------|-----------------------|
--L--------L---6br--L---4-|--6b--------L----------|
--------------------------|-----------------------|
--------------------------|-----------------------|
--------------------------|-----------------------|
--------------------------|-----------------------|
   PM PM
----------------------------------||
---------------8--11--11h~-13--L--||
---------7--8---------------------||
------8---------------------------||
--10------------------------------||
----------------------------------||

Outros vídeos desta música
68 exibições
    • ½ Tom
    • A
    • Bb
    • B
    • C
    • Db
    • D
    • Eb
    • E
    • F
    • F#
    • G
    • Ab
  • Adicionar à lista

Afinação da cifra

Afinador online

    0 comentários

    Ver todos os comentários

    Entre para o Cifra Club PRO

    Tenha acesso a benefícios exclusivos no App e no Site

    • Chega de anúncios

    • Mais recursos no app do Afinador

    • Atendimento Prioritário

    • Aumente seu limite de lista

    • Ajude a produzir mais conteúdo

    Cifra Club Pro

    Aproveite o Cifra Club com benefícios exclusivos e sem anúncios
    Cifra Club Pro
    Aproveite o Cifra Club com benefícios exclusivos e sem anúncios
    OK