Cifra Club

Aprenda

Dia Comum

Detonautas

Tab de baixo: Principal
Dia Comum

Intro 3x
G|-------------------|
D|-------------------|
A|-4h555...----------|
E|----------333...---|

Entra vocal
G|------------------------------------|
D|------------------------------------| 2x
A|-4h555...---4h555...----------------|
E|----------------------666666666...--|


G|-------------------------------|
D|-------------------------------| 
A|-------------------------------|
E|--222222...---333333...--------|

G|-------------------------------|
D|-------------------------------| 
A|-------------------------------|
E|--222222...-----3--------------|


G|----------------------------------|
D|----------------------------------|2x
A|-4h555...--------2222...----------|
E|----------333...----------333..---|


Base do solinho
G|----------------------------------|
D|----------------------------------|
A|-4h555...--------2222...----------|
E|----------333...----------333..---|

Obs.:
Ouçam bem essa! ela é bem repetitiva, atenção com as pausas e entradas!
Qualquer coisa!
balberith@bol.com.br
Composição de DJ Cleston / Fábio Brasil / Renato Rocha / Rodrigo Netto / Tico Santa Cruz
Colaboração e revisão:
  • Bruno Balberith
6.730 exibições

0 comentários

Ver todos os comentários

Conseguiu tocar?

0 Tocaram 0 Ainda não

Grave um vídeo tocando Dia Comum e nos envie!

00:00 / 00:00
Outros vídeos desta música
Repetir Qualidade Automático
Outros vídeos desta música
00:00 / 00:00
Automático

Cifra Club Pro

Aproveite o Cifra Club com benefícios exclusivos e sem anúncios
Cifra Club Pro
Aproveite o Cifra Club com benefícios exclusivos e sem anúncios
OK