Cifra Club

Aprenda

Olhos Certos

Detonautas

Cifra: Versão 3 (violão e guitarra)
tom: E
Introdução:

  C#m           A7M C#m          A7M
E|--4-5-5h7-5--4-------4-5-5h7-5-4----------|
B|----------------5-------------------------|
G|6---------------6--6--------------6-------|
D|6---------------6--6--------------6-------|
A|4---------------0--4--------------0-------|
E|------------------------------------------|

C#m           A7M  C#m      A7M
E|--4--5-5h7-5-4----------------------------|
B|----------------5-5/7--5--5/7--0----------|
G|6---------------6------6-------6----------|
D|6---------------6------6-------6----------|
A|4---------------0------4-------0----------|
E|------------------------------------------|

C#m             A7M
Tento te encontrar
 C#m         F#7(11)
tanto pra dizer
 C#m     A7M       C#m   A7M
Meu amor,    tudo bem

 C#           A7M
Sorte de nós dois
       C#m        F#7(11)
Quero te fazer feliz
 C#m     A7M          C#m   A7M
Meu amor,    sempre quis


 C#m                       A7M
Seus olhos certos mas não sei o que dizer
F#7(11)           A7M
Eu não vou mas o tempo vem
 C#m                    A7M
Ta tudo certo mais não sei o que dizer
F#7(11)           A7M        (C#m   A7M  ) 2x
Eu não vou mas o tempo vem aqui


C#m             A7M
Tento te encontrar
 C#m         F#7(11)
tanto pra dizer
 C#m     A7M       C#m   A7M
Meu amor,    tudo bem

 C#m          A7M
Mesmo sem te ver
 C#m           F#7(11)
Não chegou ao fim
 C#m     A7M          C#m  A7M
Seu amor,    tudo em mim

E         B4   C#m        A5(9)
  Se não for mais do que tento ser
E         B4  A5(9)
  Se não for mais

E         B4   C#m        A5(9)
  Se não for mais do que tento ser
E         B4  A5(9)
  Se não for

 C#m  B4  C#m  A5(9)   (2x)


(refrão)
 C#m                       A7M
Seus olhos certos mas não sei o que dizer
F#7(11)           A7M
Eu não vou mas o tempo vem

 C#m                    A7M
Ta tudo certo mais não sei o que dizer
F#7(11)           A7M         C#m   B4 A5(9)
Eu não vou mas o tempo vem aqui
Composição de DJ Cleston / Fábio Brasil / Renato Rocha / Rodrigo Neto / Tchello / Tico Santa Cruz
1.483.433 exibições
    • ½ Tom
    • A
    • Bb
    • B
    • C
    • Db
    • D
    • Eb
    • E
    • F
    • F#
    • G
    • Ab
  • Adicionar à lista

    0 comentários

    Ver todos os comentários
    00:00 / 00:00
    Outros vídeos desta música
    Repetir Qualidade Automático
    Outros vídeos desta música
    00:00 / 00:00
    Automático

    Cifra Club Pro

    Aproveite o Cifra Club com benefícios exclusivos e sem anúncios
    Cifra Club Pro
    Aproveite o Cifra Club com benefícios exclusivos e sem anúncios
    OK