Enviar cifraEntrar

Quando o Sol Se For

Detonautas

Cifra: Principal
exibições 992.933
Tom: D
(intro)

(baixo)

E |--------------------------------------|    |-------------------------------|
B |--------------------------------------|    |-------------------------------|
G |--------------------------------------|    |-------------------------------|
D |--------------------------------------|    |-------------------------------|
A |--------------------------------------|    |-------------------------------|
E |-7-7-7-7-7-7-7-7-10-10-10-10/9-10/9-9-|(3x)|-7-7-7-7-7-7-7-10-10-10-10-13--|(1x)


(guitarra 1 - ska)

E |-22222-22222|
B |-33333-33333|
G |-44444-22222|
D |-44444-44444|
A |-22222-22222|
E |------------|  (4x)


(guitarra 2 - abafado)

E |--------|
B |--------|
G |-4----7-|
D |-4----7-|
A |-2----5-|
E |--------|  (4x)


(solo)

   A5         G5           B5         D5
|--------------------------7-7-7-7-7-10-10-10-10-10-----|
|-10-10-10-10-10-8-8-8-8-8-7-7-7-7-7-10-10-10-10-10-----|
|--9--9--9--9--9-7-7-7-7-7------------------------------|
|-------------------------------------------------------|
|-------------------------------------------------------|
|-------------------------------------------------------|


(riff)

E |-9--9--9--10--9----9--9--9--9--10--9----9--9--9--9--10--9----9--12--12--12--12--12
B |10-10-10--10-10---10-10-10-10--10-10---10-10-10-10--10-10---10--10--10--10--10--10
G |----------------------------------------------------------------------------------
D |----------------------------------------------------------------------------------
A |----------------------------------------------------------------------------------
E |----------------------------------------------------------------------------------


A5           G5
Penso no que faço
       B5               D5
no que fiz e no que vou fazer
 A5           G5
Hoje o seu retrato
         B5                D5
só me mostra o que eu quero esquecer

(dedilhado - junto refrão)

|-------0------------0------------0-------------0--------|
|-----1---1--------1---1--------1---1---------1---1------|
|---2-------2----2-------2----2-------2-----2-------2----|
|--------------------------------------------------------|
|-0------------------------2-------------0---------------|
|--------------3-----------------------------------------|


(refrão)
 A5              G5         B5          D
Quando o sol se for meu amor vou onde você for
 A5              G5         B5          D5
Quando o sol se for a luz indicará você pra mim

(solo 2x) A5 G5 B5 D5

 A5             G5
Passo o tempo todo
       B5          D5
tudo passa passa solução
 A5               G5
Sempre saio a noite
          B5               D5
a noite sempre deixa a sensação

(refrão 2x)

B5                      D5
    E eu fico a te esperar
B5                                D5
    Abro os olhos mas não  posso ver
B5                      D5
    Não me canso de tentar
B5                      D5
    Eu não quero entender

(na estrofe acima na hora de tocar a nota ré vc
faz o solinho abaixo, e depois volta na nota si,
mas só na primeira e terceira vez)


E |-----------------|
B |--7--------------|
G |-----9-7-6-7-6---|
D |-----------------|
A |-----------------|
E |-----------------|


(A5 G5 B5 D5 - com solo e riff)  (4x)

 A5           G
Penso no que faço
       B5               D5
no que fiz e no que vou fazer
 A5           G5
Hoje o seu retrato
         B5                D5
só me mostra o que eu quero esquecer

(refrão 6x)
(refrão  com solo)

(intro 4x) (foi, foi..)

(solo final)

E |--------------------------------|
B |--777---------------------------|
G |------999-777-6-7-6-7-6-7-6-----|
D |--------------------------------|
A |-----------------------------7--|
E |-----------------------------5--|
  • 1
  • 2
  • 3
  • 4
  • 5
  • 6
  • 7
  • 8
  • 9
  • 10
  • 11
  • 12

    0 comentários

      mostrar mais comentários

      Conseguiu tocar?

      62tocaram1ainda não

      Grave um vídeo tocando Quando o Sol Se For e mande pra gente!

      00:00 / 00:00
      outros vídeos desta música
      repetirqualidadeautomática
      • automática
      Outro vídeos desta música
        00:00 / 00:00
        automática
        • automática
        1 versão de Tab de baixoexibiçõescontribuições
        1 versão de Tab de bateriaexibiçõescontribuições
        1 versão de Tab de gaitaexibiçõescontribuições
        fecharplay/pause subir/descer velocidade
          acordes
          fechar
          OK
          Feedback