Cifra Club

Só Nós Dois

Detonautas

Cifra: Principal
exibições 221.257
Tom: C
                    Am
Agora somos só nós dois
   G                                 E
E não temos que provar pra mais ninguém
  F         Am                             G  (Riff 1)
Amor, eles não conseguem perceber como é real

E|------------------------|
B|------3-----------------|
G|--2h4---4p2--0----------|
D|------------------------|
A|------------------------|
E|------------------------|
                               E  (Riff 2)    F
Que a gente se encante com alguém          assim

[Riff 2]
  
        E                   F
E|-----------0----------1-----|
B|-------0------1-------1-----|
G|-----1---1------------2-----|
D|---2------------------3-----|
A|----------------------3-----|
E|-0--------------------1-----|

  Am                         G                            E
Existem mil mistérios que renovam os nossos planos de seguir
                   F
Acreditando nesse nosso amor!
   Am                      G                           E
E nada do que digam vai mudar o que pensamos, deixa estar
                      F
E agora vamos, já chegou!

         Am             G
Meu coração vai te mostrar
           E                   F
Que esse amor não precisa esperar
                 Am  G  E  F
Não precisa esperar!

[Solo]

E|------------------------------------------------------------------|
B|-----10-----10-----10-----5-----5---------------------------------|
G|-7h9----7h9----7h9----5h7---5h7-------5-----5----------------5-7--|
D|----------------------------------5/7---5/7--------------5-7------|
A|-----------------------------------------------7p5---5h7----------|
E|---------------------------------------------------8--------------|

E|-------------------------8---7---8--------------------------------|
B|---8---10---8---10---8---------------8---10-----------------------|
G|-9---9----9---9----9---9---9---9---9---9--------------------------|
D|------------------------------------------------------------------|
A|------------------------------------------------------------------|
E|------------------------------------------------------------------|

E|------------------------------------------------------------------|
B|--8-8-8-8\5-5-5-5/------------------------------------------------|
G|--------------------7-7-7\5-5-5-5--4--5\4--5\4--5\4--5\4----------|
D|----------------------------------------------------------5/7--5--|
A|------------------------------------------------------------------|
E|------------------------------------------------------------------|

E|--------------------------------17----15-------17----15/17~--------------|
B|--/10-10/12-12/13-13/15---15/17----17----15/17----17-------15/17-15/17~~-|
G|-------------------------------------------------------------------------|
D|-------------------------------------------------------------------------|
A|-------------------------------------------------------------------------|
E|-------------------------------------------------------------------------|

         Am             G
Meu coração vai te mostrar
           E                   F
Que esse amor não precisa esperar
         Am             G
Meu coração vai te mostrar
           E                   F
Que esse amor não precisa esperar
                 Am
Não precisa esperar!
Acordes para:

    0 comentários

      mostrar mais comentários

      Conseguiu tocar?

      47tocaram0ainda não

      Grave um vídeo tocando Só Nós Dois e mande pra gente!

      00:00 / 00:00
      outros vídeos desta música
      repetirqualidadeautomática
      Outro vídeos desta música
        00:00 / 00:00
        automática
        OK