Notificações Amigos pendentes

      Detonautas

      Só Nós Dois

      193.710 exibições
      Tom: C
                          Am
      Agora somos só nós dois
         G                                 E
      E não temos que provar pra mais ninguém
         F        Am                             G
      amor, eles não conseguem perceber como é real (riff 1)
      
      E|----------------|
      B|------3---------|
      G|--2h4---4p2--0--|
      D|----------------|
      A|----------------|
      E|----------------|
      
      
      
                                     E            F
      Que a gente se encante com alguém (riff 2) assim...
      
            E                   F
      E|-----------0----------1-----|
      B|-------0------1-------1-----|
      G|-----1---1------------2-----|
      D|---2------------------3-----|
      A|----------------------3-----|
      E|-0--------------------1-----|
      
      
        Am                         G                            E
      Existem mil mistérios que renovam os nossos planos de seguir
                          F
      Acreditando nesse nosso amor!
        Am                       G                           E
      E nada do que digam vai mudar o que pensamos, deixa estar
                            F
      E agora vamos, já chegou!
      
      Refrão:
              Am              G
      Meu coração vai te mostrar
                 E                   F
      Que esse amor não precisa esperar...
                       Am  G  E  F
      Não precisa esperar!
      Solo:
      
      E|------------------------------------------------------------------|
      B|-----10-----10-----10-----5-----5---------------------------------|
      G|-7h9----7h9----7h9----5h7---5h7-------5-----5----------------5-7--|
      D|----------------------------------5/7---5/7--------------5-7------|
      A|-----------------------------------------------7p5---5h7----------|
      E|---------------------------------------------------8--------------|
      
      
      E|-------------------------8---7---8----------|
      B|---8---10---8---10---8---------------8---10-|
      G|-9---9----9---9----9---9---9---9---9---9----|
      D|--------------------------------------------|
      A|--------------------------------------------|
      E|--------------------------------------------|
      
      
      (Nessa parte usa-se o instrumento Slide)
      
      
      E|------------------------------------------------------------------|
      B|--8-8-8-8\5-5-5-5/------------------------------------------------|
      G|--------------------7-7-7\5-5-5-5--4--5\4--5\4--5\4--5\4----------|
      D|----------------------------------------------------------5/7--5--|
      A|------------------------------------------------------------------|
      E|------------------------------------------------------------------|
      
      
      E|--------------------------------17----15-------17----15/17~--------------|
      B|--/10-10/12-12/13-13/15---15/17----17----15/17----17-------15/17-15/17~~-|
      G|-------------------------------------------------------------------------|
      D|-------------------------------------------------------------------------|
      A|-------------------------------------------------------------------------|
      E|-------------------------------------------------------------------------|
      
      
      
              Am              G
      Meu coração vai te mostrar
                 E                   F
      Que esse amor não precisa esperar
              Am              G
      Meu coração vai te mostrar
                 E                   F
      Que esse amor não precisa esperar...
                       Am
      Não precisa esperar!
      
            Am        A9   A    A4   Am   A9   Am
      E|--0----0----0----0----0----0----0----0---|
      B|--1----1----0----1----3----1----0----1---|
      G|--2----2----2----2----2----2----2----2---|   [ 4x ]
      D|--2----2----2----2----2----2----2----2---|
      A|--0----0----0----0----0----0----0----0---|
      E|-----------------------------------------|
      
      

      Comentários 16

      140 .
      • Joao Carlos Joao Carlos: Em 19/04/2016 20:31

        Uma aula, porfavor

      • Matheus Matheus: Em 30/10/2015 17:14

        Uma video aula desse solo ai serviria bastante

      • denilson denilson: Em 13/09/2014 16:48

        Que música é essa, SHOW...!!!!!!!

      • detalita detalita: Em 22/06/2012 22:10

        bom demaisssssssssssssssss

      • et013 et013: Em 08/04/2012 13:40

        Alguem sabe o ritmo dessa musica?se alguem souber me ajude por favor

        • detalita detalita: Em 22/06/2012 22:11

          eu toco meio bccbcbc, espero ter ajudado.

      • et013 et013: Em 08/04/2012 12:00

        =D

      • et013 et013: Em 08/04/2012 11:41

        Alguem sabe o ritmo dessa musica?se alguem souber me ajude por favor.

      • yvisrock yvisrock: Em 18/03/2012 14:38

        solo muito fodastico

      • andreariel andreariel: Em 27/10/2011 10:43

        essa nota G (Sol) é feita na 3ª casa

      140 cancelar
      0:00 / 0:00

      Capítulos

        1 versão de bateria exibições contribuição e correção
        play/pausefechar subir/descer velocidade
        6ª corda E5ª corda A4ª corda D3ª corda G2ª corda B1ª corda E
          acordes
          publicidade
          fechar
          ok