Cifra Club

Temptation

Diana Krall

Tab de baixo: Principal
Intro: (pode ser feita 2X ou improvisada) 

G ---------------------------------------------------------------------------------------------
D -----------------------------------------------------------5-7-------------------------------
A --3--------3--5—6--5--0--2----2------------------------5-7------7--5--0--3---3---------------
E ----------------------------------------------------------------------------------------------

Rusted brandy(...)

G --------------------------------------------------------------
D --------------------------------------------------------------
A -0--3---3---3-5-------------------------------5-0-3---3----
E ------------------0-3---3--------0-3---3---0---------------- (repete até refrão)

Refrão:

G -----------------------------------------------------------------------------------------
D ---------3--3--------------------------------3--3------------------------5--5------------
A --0-3-5--------0-3--3-------------0-3--3-3-5--------0-3--3---0-5---5---0-----------------
E ------------------------0-3--3-----------------------------------------------------------

Rusted brandy in a diamond glass
Everything is made from dreams
Time is made from honey slow and sweet
Only the fools know what it means

Temptation, temptation, temptation
Oh, temptation, temptation, I can't resist

Well I know that she is made of smoke
But I've lost my way
He knows that I am broke
But I must play

Temptation, oh temptation, temptation, I can't resist

Dutch pink and Italian blue
He is there waiting for you
My will has disappeared
Now confusion is so clear

Temptation, temptation, temptation
I can't resist
Temptation, temptation, temptation
I can't resist
Composição de Tom Waits
Colaboração e revisão:
  • Caruzo
1.522 exibições

0 comentários

Ver todos os comentários

Conseguiu tocar?

0 Tocaram 0 Ainda não

Grave um vídeo tocando Temptation e nos envie!

00:00 / 00:00
Outros vídeos desta música
Repetir Qualidade Automático
Outros vídeos desta música
00:00 / 00:00
Automático

Cifra Club Pro

Aproveite o Cifra Club com benefícios exclusivos e sem anúncios
Cifra Club Pro
Aproveite o Cifra Club com benefícios exclusivos e sem anúncios
OK