Notificações Amigos pendentes

      Diante do Trono

      A Ele a Glória

      783.658 exibições
      Tom: C
      Intro: Em  C  D  Em  Em  C  D  Em  D Em  D  Em
      
      Intro:
      
      
             Em
      E|---------0--------7-----5-----3----0-|
      B|-------------0-----------------------|
      G|-----0-------------------------------|
      D|-------------------------------------|
      A|-------------------------------------|
      E|--0---------------0-----0-----0------|
      
      
             C                          D
      E|---0----------0---------3----3--------2---2---0-------0-----| 
      B|---1-------1-----1--------------------3-----------3---------|
      G|--------0-----------0--------------2------------------------|
      D|--------------------------------0---------------------------|
      A|---3--------------------3----3------------------------------|
      E|------------------------------------------------------------|
      
      
             Em                   Em
      E|------------0----------3----0----------|
      B|---------0------0------0----0----------|
      G|------0----------------0----0----------|
      D|-----------------------2----2----------|
      A|-----------------------2----2----------|
      E|--0--------------------0----0----------|
      
      
      Em                  C
      Porque Dele e por Ele
           D9                  Em
      Para Ele são todas as coisas
      Em                  C
      Porque Dele e por Ele
           D4  D   D9               Em
      Para Ele são todas as coisas
      
      Refrão:
      
      
      E|------------------------------------------------------------------------------|
      B|-8-10-12/13-12-10----8-10-12-12-10-8-10-8-7-8----5-7-8-8-7/10-8-7--7/8/7--3-5-|
      G|------------------------------------------------------------------------------|
      D|------------------------------------------------------------------------------|
      A|------------------------------------------------------------------------------|
      E|------------------------------------------------------------------------------|
      
      
              C   C/B   D9
      A Ele a Gló______ria
              G    D/F# Em
      A Ele a Gló______ria
              C   B7
      A Ele a Glória
                   Em
      Pra sempre, amém
      
      Em                   C
         Quão profundas riquezas
           D9                   Em
      O saber e o conhecer de Deus
                 C
      Quão insondáveis
             D4  D D9           Em
      Seus juízos e Seus caminhos
      
              C   C/B  D
      A Ele a Gló_____ria
              G   D/F#  Em
      A Ele a Gló  -    ria
              C   B7
      A Ele a Glória
                   Em
      Pra sempre, amém
      
      Modulação: C  Bm7  C  D  Eb  F
      
      Solo guitara:
              
      
      
      E|-------------------------|------------------------10--------------------------------------|
      B|----/12---10---8---------|--8---10---8---10/12---------12---10---8----8h10---8------------|
      G|-------------------9--9--|-------------------------------------------------------9---9----|
      D|-------------------------|----------------------------------------------------------------|
      A|-------------------------|----------------------------------------------------------------|
      E|-------------------------|----------------------------------------------------------------|
      
      
      E|----------------------------------------10--10--|----8/10---8----------------------------------|
      B|----------8----10---8-----8/12----10------------|---------------11----8----8---8/10--10--10\---|
      G|----9-------------------------------------------|----------------------------------------------|
      D|------------------------------------------------|----------------------------------------------|
      A|------------------------------------------------|----------------------------------------------|
      E|------------------------------------------------|----------------------------------------------|
      
      
      
       Bb  Cm  Dm7  Eb  F
      A   Ele a   glória
               Bb   F/A   Gm7
      A Ele a glória
              Eb7M     Dm7
      A Ele a glória
                   Gm
      Pra sempre, amém
      
      Gm F  D  Eb7M    Dm7
      A Ele a glória
      Eb7M    Dm7  Eb7M  Dm7
      Glória, glória
                    G
      Pra sempre, amém
        Composição: Kevin JonasColaboração e revisão:
        • Júlio Cézar
        • Willian Felipe
        • DuduTerceiroo
        • Gustavo
        • +10

        Comentários 17

        140 .
        • Jeremias Jeremias: Em 28/01/2016 22:21

          j

        • Jeremias Jeremias: Em 28/01/2016 22:20

          isso é de teclado ou de guitarra

        • edmar.silva.56884 edmar.silva.56884: Em 11/10/2015 09:51

          Acho que o Tom dessa Musica seria "Em" relativa menor de "G" e não em "C"...

        • donizete donizete: Em 06/06/2015 20:09

          muito lindo este louvor

        • Jose Augusto Jose Augusto: Em 27/05/2015 12:26

          tanta visualização e nenhuma vídeo aula vai entender. Se fosse uma musica de jorge e mateus já teriam postado uma vídeo-aula

        • Luis Luis: Em 29/08/2014 08:58

          Galera poem no tom de dó ou seja C fica melhor ainda a melodia.

        • juninho juninho: Em 03/07/2014 14:08

          e ai galera achei a melodia para essa musica me add no skype quem quiser "Juninho Deus é fiel" só procurar la tem a foto do meu filho de ca

        • leona.s.flores leona.s.flores: Em 30/12/2013 20:19

          kkkkk
          Meio "hard"
          Eu nã entendi nda da 2ª parte...kkkkkk

        • giovanni.gireli giovanni.gireli: Em 17/12/2013 17:11

          É muito legal esse hino,quando você pega o jeito de tocar fica mais legal ainda.=)=)=)=)=)

          • Rodrigo Rodrigo: Em 18/04/2016 15:31

            Bom mesmo é tirar a intro dedilhado, e solo do refrão e a musica tirar simplificada fica bom tbm ^^

        140 cancelar

        conseguiu tocar?

        • •••
        Binho633 visualizações
          ver covers de outras músicas »
          0:00 / 0:00

          Capítulos

            1 versão de baixo exibições contribuição e correção
            play/pausefechar subir/descer velocidade
            6ª corda E5ª corda A4ª corda D3ª corda G2ª corda B1ª corda E
              acordes
              publicidade
              fechar
              ok