Cifra Club

Aleluia

Diante do Trono

Cifra: Diante-do-trono-13
exibições 77.151
Tom: A
Intro: A  F#m  D  Bm  A

Solo Intro: A E D C#


E|-------------9/10--9-----------------------------------------|
B|----9/10-----------------------------------------------------|
G|----------9--------------------------------------------------|
D|-------------------------------------------------------------| 2x
A|-------------------------------------------------------------|
E|-------------------------------------------------------------|


E|-------------9/10--9-----------------------------------------|
B|----9/10--------------10~------------------------------------|
G|----------9--------------------------------------------------|
D|-------------------------------------------------------------|
A|-------------------------------------------------------------|
E|-------------------------------------------------------------|


A                       D
Tantas vezes não consigo perceber
 A                       D
Tua mão, Teu cuidado em meu viver
          F#m7    E
É sem merecer eu sei
                    F#m7            E4    E E4 E
Que as bênçãos me alcançam, quero reconhecer

        A9          A4                         D9
Ajuda-me a ver, o amor que me desperta pela manhã
         Bm7       Bm7/A
Ajuda-me a ver, bondade e misericórdia
        E4 E        E4 E
Que me seguem todo dia
   F#m7     A/C#  E4  E
Aleluia, Aleluia

         A4         D9/A
Sejas louvado, meu Deus e Rei
             F#m7
Com os meus lábios te bendirei
          D9   Bm7
Todos os dias, escolherei cantar:

   D9  E/D  D9 E/D   D/F# E/G# D9/A E/B E
A|--le|--lu-ia,   a---le|--lu---ia


(solo) A E D C#
(Base) A  F#m  D  Bm  A


E|-------------9/10--9-----------------------------------------|
B|----9/10-----------------------------------------------------|
G|----------9--------------------------------------------------|
D|-------------------------------------------------------------| 2x
A|-------------------------------------------------------------|
E|-------------------------------------------------------------|


E|-------------9/10--9-----------------------------------------|
B|----9/10--------------10~------------------------------------|
G|----------9--------------------------------------------------|
D|-------------------------------------------------------------|
A|-------------------------------------------------------------|
E|-------------------------------------------------------------|    (ajuda-me...)


        A9          A4                         D9
Ajuda-me a ver, o amor que me desperta pela manhã
         Bm7       Bm7/A
Ajuda-me a ver, bondade e misericórdia
        E4 E        E4 E
Que me seguem todo dia
   F#m7     A/C#  E4  E
Aleluia, Aleluia

         A4         D9/A
Sejas louvado, meu Deus e Rei
             F#m7
Com os meus lábios te bendirei
          D9   Bm7
Todos os dias, escolherei cantar:

   D9  E/D  D9 E/D   D/F# E/G# D9/A E/B E
A|--le|--lu-ia,   a---le|--lu---ia


(solo intro) A E D C#
(Base) A  F#m  D  Bm  A


E|-------------9/10--9-----------------------------------------|
B|----9/10-----------------------------------------------------|
G|----------9--------------------------------------------------|
D|-------------------------------------------------------------| 2x
A|-------------------------------------------------------------|
E|-------------------------------------------------------------|


E|-------------9/10--9-----------------------------------------|
B|----9/10--------------10~------------------------------------|
G|----------9--------------------------------------------------|
D|-------------------------------------------------------------|
A|-------------------------------------------------------------|
E|-------------------------------------------------------------|


Ministração:
  A        D/A      E/A      A9
Aleluia, Aleluia, Aleluia, Aleluia,
  A/C#       D       E        A9
Aleluia, Aleluia, Aleluia, Aleluia,
A9    Bm   E/G#  A    F#m   Bm   E   A4   A
A..leluia, A..leluia, A..leluia, A..leluia,   (2x)

         A4         D9/A
Sejas louvado, meu Deus e Rei
             F#m7
Com os meus lábios te bendirei
          D9   Bm7
Todos os dias, escolherei cantar:

       D9 E/D D9 E  D/F# E/G# D9/A E/B
A|--le|--lu-ia, a---le|--lu---ia...
Acordes para:

    0 comentários

      mostrar mais comentários

      Conseguiu tocar?

      3tocaram1ainda não

      Grave um vídeo tocando Aleluia e mande pra gente!

      00:00 / 00:00
      outros vídeos desta música
      repetirqualidadeautomática
      Outro vídeos desta música
        00:00 / 00:00
        automática
        OK