Cifra Club

Aprenda

Anseio

Diante do Trono

Cifra: Tablatura (violão e guitarra)
tom: Dm
E|-----------------------------------------
B|-----3----(3)-----(3)----(3)-------------
G|---5----(5)----(5)----(5)----------------   executando sem distorção e com delay
D|-----------------------------------------
A|-----------------------------------------
E|-----------------------------------------

E|-----------------------------------------
B|---------5----(5)----(5)----(5)----------
G|-------5---(5)----(5)----(5)-------------
D|-----------------------------------------
A|-----------------------------------------
E|-----------------------------------------
   anseio por mais de ti...
E|--------1---------1------------
B|-------1--1-1----1---1---------
G|------0----0----0---0----------
D|-----3---------3---------------
A|-------------------------------
E|-------------------------------  essas 3 partes executar 2x

E|-------------------------------
B|----6------5-------------------
G|---3---3-3--3-3---3------------
D|--5-----5----5---5-------------
A|-3-----------------------------
E|-------------------------------

E|--------------------------2-----2----2-
B|-------6------3----------2-------2-2-2-
G|---5------5----3-3--3---3---3-3---3----
D|--3--------3----3--3---3-----3---------
A|-----3------3--------------------------
E|---------------------------------------

Reintro:
                          fazer essas duas partes ate a hora que começa a cantar anseio
E|-----------------------------------------
B|-----3----(3)-----(3)----(3)-------------
G|---5----(5)----(5)----(5)----------------   executando sem distorção e com delay
D|-----------------------------------------
A|-----------------------------------------
E|-----------------------------------------

E|-----------------------------------------
B|---------5----(5)----(5)----(5)----------
G|-------5---(5)----(5)----(5)-------------
D|-----------------------------------------
A|-----------------------------------------
E|-----------------------------------------

   anseio por mais de ti...    dessa vez executar com distorção no volume : 3
E|--------1---------1------------
B|-------1--1-1----1---1---------
G|------0----0----0---0----------
D|-----3---------3---------------
A|-------------------------------
E|-------------------------------  essas 3 partes executar 2x

E|-------------------------------
B|----6------5-------------------
G|---3---3-3--3-3---3------------
D|--5-----5----5---5-------------
A|-3-----------------------------
E|-------------------------------

E|-----------------------8-8---8-8-8--8-8-
B|-------6------3--------6-6--6--6-6-6--6-
G|---5------5----3-3--3--7-7-----7-7----7-
D|--3--------3----3--3---8-8-8---8-8----8-
A|-----3------3---------------------------
E|----------------------------------------

Solo:
executar com reverb e distorção
E|--8--8v--------------8-8--8v---------------8-8--8v---------------8-8--8v------13p12--------------------
B|-------------8-10-11---------------8-10-11---------------8-10-11--------------------15-14--------------
G|---------9-10-----------------9-10------------------9-10------------------9s12-------------------------
D|-------------------------------------------------------------------------------------------------------
A|-------------------------------------------------------------------------------------------------------
E|-------------------------------------------------------------------------------------------------------

E|----------------------------17-18-20v-20v--20v----------17-18-20v-20v--20v----------17-18-20v-20v--20v-
B|-11s13--13(vibrato)s17-18-20--------------------17-18-20--------------------17-18-20-------------------
G|-------------------------------------------------------------------------------------------------------
D|-------------------------------------------------------------------------------------------------------
A|-------------------------------------------------------------------------------------------------------
E|-------------------------------------------------------------------------------------------------------

E|-------------------------------------------------------------------------------------------------------
B|--17-18-17-15---18v------------------------------------------------------------------------------------
G|--------------17v--------------------------------------------------------------------------------------
D|-------------------------------------------------------------------------------------------------------
A|-------------------------------------------------------------------------------------------------------
E|-------------------------------------------------------------------------------------------------------

Composição de Ana Paula Valadão / Jonathan Lewis
Colaboração e revisão:
  • brayner
4.140 exibições
    • ½ Tom
    • Am
    • Bbm
    • Bm
    • Cm
    • C#m
    • Dm
    • Ebm
    • Em
    • Fm
    • F#m
    • Gm
    • G#m
  • Adicionar à lista

    0 comentários

    Ver todos os comentários
    00:00 / 00:00
    Outros vídeos desta música
    Repetir Qualidade Automático
    Outros vídeos desta música
    00:00 / 00:00
    Automático

    Cifra Club Pro

    Aproveite o Cifra Club com benefícios exclusivos e sem anúncios
    Cifra Club Pro
    Aproveite o Cifra Club com benefícios exclusivos e sem anúncios
    OK